Oops, an error
Loading. Please wait.

Let Me Be The One Tab

version 2
version 2

Whole song

  • I have supporting video tutorial for this tab which would help in easy learning.
  • This is the most accurate tab of this song.

Interactive

73,790 views 264 this week
1 commentread comment
1 2 3 4 5
excellent!
x 9
add to favorites
launch autoscroll
font size
0
reset
how to read this tab
guitar tuner
Autoscroll
slow
fast
+/-
esc
set tempo
stop
Help us to improve Ultimate-Guitar.com Take our survey!
×
			let me be the one
		       (accoustic version)
			tabbed by: demet	
		       freeman_e2@yahoo.com


INTRO:
                                                    

E--------12-12-12------7-9-9--------7-9-9-----7-9------------------|
B--10-------------10/---------10-----------10----------------------|
G-----9----------------6---------9--6------------------------------|
D--------12--------------------------------------------------------|
A------------------------------------------------------------------|
E------------------------------------------------------------------|
					     ^
E--------12-12-12------7-9-9-----------------4-----------------------|
B--10-------------10/---------10/5-----------5-----------------------|
G-----9-----------------------------9--7-----4-----------------------|
D--------12----------------------------------6-----------------------|
A--------------------------------------------7-----------------------|
E--------------------------------------------------------------------|



E--------------------------------------------------------------------|
B----------2-------------2------5-----------2------------2-----------|
G--2---2/4---4---2---2/4---4-2--2---2---2/4---4--2---2/4---4---------|
D--2-2-----------2-2----------------2-2----------2-2-----------------|
A--------------------------------------------------------------------|
E--------------------------------------------------------------------|

VERSE: 1
E----------------------------------------------tap-------------------|
B---2----------------------------3-----------2--------3--------------|
G---2----------------------------2--------2--2-----2-----------------|
D---2----------------------------0--------2--2-----0-----------------|
A--------------------------------------------------------------------|
E--------------------------------------------------------------------|
    somebody told me you were leavi'n    i dindn't know

E-------tap---------------------tap---------------------------------|
B------2------3------------5--5-------------------2-----------------|
G---2--2----2-----------------6---------2---2--4--------------------|
D---2--2----0-----------------6-------------------------------------|
A--------------------------4--4-------------------------------------|
E---------------------------------------2---------------------------|
				^
E--------------------------------------------------------------------
B--------2-------0---------3----2------2-3--------------------------|
G------3-------2---------4------2----2------------------------------|
D----2-----------------4--------2-----------------------------------|
A--0---------4-------2----------0-----------------------------------|
E-------------------------------------------------------------------|

somebody told me you dont want me no more...ohhhh
so your walking out the door...

E--------2-----4-tap--------2-tap---------------------7---------------|
B------3----5--5--------3---3-------2-------------5---5---------------|
G----2---------6------------4-------2-pause----4------6---------------|
D--0-----------6------------4-------2-----------------5---------------|
A-----------4--4--------2---2-----------------7-------7---------------|
E-----------------------------------------------------5---------------|
no body told me youve been fell out of    so im setting you free
love with me




E--------2----------------------------------------------------|
B------3---3-------------5---------3--------2-----------------|
G----2-------2---------6---------4--------2-------------------|
D--0----------0------6---------4--------2---------------------|
A------------------4---------2--------0-----------------------|
E-------------------------------------------------------------|
let me be the one...


E--------2------------------------------------------------------|
B------3---3-------------5---------3--------2-------------------|
G----2-------2---------6---------4--------2---4-----------------|
D--0----------0------6---------4--------2-----------------------|
A------------------4---------2--------0-------------------------|
E---------------------------------------------------------------|
we dont nee to find a set up...

						   ^
E--------2---2--------------------------------------------------|
B---3----------3---------------5/1---------2-------4------------|
G------2---2--------------6--------------2---2-----4------------|
D---0-------------------6----------------------4---4------------|
A---------------------4----------------------------2------------|
E------------------------------------2--------------------------|
we just have to say our love was true...	   lie...





E---------2---------------0-----------------------------------|
B-----------3---------------2---------------------------------|
G------4------4--------2------2-------------------------------|
D----4---------4-----2----------2-----------------------------|
A--2---------------4------------------------------------------|
E-------------------------------------------------------------|
so im telling you i love you one last 



#1			 intro 2
E--------------------------------------------------------------|
B--------3-----3-----3-----------------------------------------|
G------4-----4-----4-------------------------------------------|
D----4-----4-----4---------------------------------------------|
A--2-----------------------------------------------------------|
E--------------------------------------------------------------|
time... and good bye...


E--------12-12-12------7-9-9----------------4---------5-----------|
B--10-------------10/---------10/5----------5-----3/5---5/3-2-3---|
G-----9----------------6------------9--7----4---------------------|
D--------12---------------------------------6---------------------|
A-------------------------------------------7---------------------|
E-----------------------------------------------------------------|


#2 & bridge
E-----------------------0tap---tap-------tap---------------------|
B--------------------2--2----2-----2---7-----7-------------------|
G--4--------------------2----------------------------------------|
D--4--4--4--4-----------2----------------------------------------|
A--2--2--2--2--------2-------2-----2---5-----5-------------------|
E----------------------------------------------------------------|
time and good       bye





E-----tap---------tap-------tap-------tap----------tap----------|
B---5--------3--3---------3---------3------------5--------------|
G---------------2---------2---------2------------6--------------|
D---------------------4-4-------4-4--------------6--------------|
A---4--------2--------2-2-------2-2-------0-2-4--4--------------|
E---------------------------------------------------------------|
we dont have to live like this		  if yo love me still...




			       ^     ^
E-------------------------------------------------------------|
B------------------------------7-----3------------------------|
G-----2---------------------7--7-----6------------------------|
D-------------------------7----7-----6------------------------|
A-----------------------5------5-----4------------------------|
E-----2-------------------------------------------------------|
-
then stay  dont keep waiti'n...




E---------------2---------------4---------------------------|
B-----------------2---------------5-------------------------|
G------------2------2--------6------6-----------------------|
D----------4----------4----6----------6---------------------|
A------------------------4----------------------------------|
E--------2--------------------------------------------------|
we could work....





E----------5-----------------------------------------------|
B-----------------7-----5----------------------------------|
G-------7--------------------------------------------------|
D-----7----------------------------------------------------|
A---5-------------------4----------------------------------|
E----------------------------------------------------------|
we can work through it apart





E--------------3----------------2----------------------------|
B----------5--------5/1-----------2--------------------------|
G--------5-------------------2------2------------------------|
D------5-------------------4----------4----------------------|
A----3-------------------------------------------------------|
E-----------------------2------------------------------------|
i just need to get this off my chest


		      ^  v ^  v ^  v ^ ^ ^   v ^
E--------2-------------------------------------------------|
B----------3-----------------------------------------------|
G-----4------4--------1--1-1--1-1--1-1-1-1---1-1-----------|
D---4----------4------2--2-2--2-2--2-2-2-2---2-2-----------|
A-2-------------------2--2-2--2-2--2-2-2-2---2-2-----------|
E---------------------0--0-0--0-0--0-0-0-0---0-0-----------|
that you will always have my heart... let me be the one...

repeat chorus:


ending:
E--------12--12--12------7--9--9--7--9----7--9-----------|
B--10---------------10/----------------10----------------|
G-----9------------------6--------6----------------------|
D--------12----------------------------------------------|
A--------------------------------------------------------|
E--------------------------------------------------------|

plucking till end...
 D-C#m-B#m-A-D

pwede na siguro to!!! eto kc yung tab na ginagamit ko!!!
nakita ko lang kc ung kay Ronald S. Urcia noong d pa tapos tinapos ko 
saamin... binago ko n rin ung iba!!!! 
kung may tanong o masamang comments email me sa freman_e2@yahoo.com


thanx na rin kay Ronald S. Urcia...
					demet
Suggest correction
What's this?
You can suggest a correction to this tab. Community and Mods will review your correction and vote to approve or reject it.
comments
print report bad tab
1 comment total.
0 reply
newme89 11 wrote on October 27 2011, 09:57 pm

ok xa pre bagay din sa chords kung eh aadlib nalang.galing mo

guest
You may want to rate the tab now too:
select rating
Please do not post tabs as comments. Select "correction" instead!