Oops, an error
Loading. Please wait.

Let Me Be The One Tab

version 4
version 4

Interactive

2,729 views 9 this week
no commentswrite comment
1 2 3 4 5
please rate
add to favorites
launch autoscroll
font size
0
reset
how to read this tab
guitar tuner
Tab Pro tools
  • play this tab
  • loop segment
  • change instrument
  • show fretboard
  • metronome
×
Best way to learn
"Let Me Be The One"
Autoscroll
slow
fast
+/-
esc
set tempo
stop
Contributor
Difficulty
intermediate
Intro:


E--------------------------------------0----0----0------0---0----------------|
B------0-----------0-------------3-----2----2-----------0--------------------|
G-----2--2-------2---2---------4-------4----2-------2---1--------------------|
D---4----------2-------------4--------------2-----------2--------------------|
A-5--------0-4----------0--2--------2--2----0---2-------0---0----------------|
E----------------------------------------------------------------------------|

E------0----------0---------------3-------------7----------------------------|
B---------------------------3-------------------7----------------------------|
G-----2--2-------2---2---------------2----------x----------------------------|
D---4----------2------------------------2-------6----------------------------|
A-5--------0-4----------------------------------7----------------------------|
E-----------------------0---3---3--------------------------------------------|
                       tap              tap
-0-------------------0---------------0-------|repeat 2x
-0----------0sus2-0--0--------0sus2--0-------|
-2-------2-----------2------2--------2-------|
------2-----------0-------2------------------|
-0-------------------0---------------0-------|
---------------------------------------------|


Verse 1:
Somebody told me u wer leavin I didn't know
           tap
-0----0--0-----0----0---|
-0----2--0-----2----2---|
-2-------2--------------|
------0--------0--0-0---|
-0-------0--------------|
------------------------|

Somebody told me ur unhappy but it doesnt show somebody told me that u dont want me no more...
           tap                                                      tap
-0----0---0----------------0--------0-------------0---2----2---2--2-----2----|
-0----2---0----0-----0------------3---3----------0----3----2sus3--2-----2----|
-2--------2----2-----1sus2------2---------------2-----2----2---2-------------|
------0---2----2-----2--------0---------------2-------2----2---2-------------|
-0--------4------------------------------1--4---------2--2-2---2-------2-----|
---------------2---2-2-------------------------------------------------------|

so you're walkin out the door

--------------------------------------------------------|
------------0-------------------------------------------|repeat verse 1
-------2-------2--1-------------------------------------|
-----2----2---------------------------------------------|
---2----------------------------------------------------|
-0----------------0-------------------------------------|


chord b4 cho.
---------0---2--------|
-------0-----2--------|
-----2-------2--------|
---2---------1--------|
-0-----------0--------|
----------------------|

cho.

E--------------------------------------0----0----0------0---------------------|
B------0-----------0-------------3-----2----2-----------0---------------------|
G-----2--2-------2---2---------4-------4----2-------2---1---------------------|
D---4----------2-------------4--------------2-----------2---------------------|
A-5--------0-4----------0--2--------2--2----0---2-------0---------------------|
E-----------------------------------------------------------------------------|

E--------------------------------------0----0----------0-0--------------------|
B------0-----------0-------------3-----2----2-------2----3--------------------|
G-----2--2-------2---2---------4-------4----2------------2--------------------|
D---4----------2-------------4--------------2---2--------2--------------------|
A-5--------0-4----------0--2--------2--2----0------------0--------------------|
E-----------------------------------------------------------------------------|

we just have to say our love is true but has now become a lie
         tap
------5------------5---0--0--0----------2-------2------5---------5--------5---|
--------5--------5-----0--0--0--------2---2-----2--------5-----5---------5----|
-----------------------2--2--2------2-------2---2-----------------------------|
---4-------------------------------------------------4-------4----------4-----|
-5---------0--4-----------------0-2-------------0--5-------0--------4-5-------|
-----------------------1--2--1------------------------------------------------|

-7---------------------------------------------------|
-7---------------------------------------------------|
-----------------------------------------------------|
-6---------------------------------------------------|
-7---------------------------------------------------|
-----------------------------------------------------|


------0----0-0----------------------------------------------0-----------------|
---------------------0--2--2-------0----2-2----0--2---------0-----------------|
-2-2--------------2-----------2-2------------2------2----2--1-----------------|
--------------------------------------4-------------2--2----------------------|
------5--5------5----4-------------2------0----0------------0-----------------|
------------------------------------------------------------------------------|

------0----0-0--------------------------3----------7----------------|
----------------------0--2--0------3-------3-------7----------------|
-2-2---------------2-----------2------0------2----------------------|
-----------------------------------------------2---6----------------|
------5---------5-----4------------3---------------7----------------|
--------------------------------------------------------------------|


repeat from the verse 1 for verse 2 chords
comments
We did not receive enough feedback on this tab! Please rate:
print report bad tab
1 2 3 4 5
I want to post or [tab]
guest
You may want to rate the tab now too:
select rating
Please do not post tabs as comments. Select "correction" instead!