Oops, an error
Loading. Please wait.

Let Me Be The One Tab

version 5
version 5

Whole song

  • I have supporting video tutorial for this tab which would help in easy learning.
  • This is the most accurate tab of this song.

Interactive

506 views 24 this week
no commentswrite comment
1 2 3 4 5
please rate
add to favorites
launch autoscroll
font size
0
reset
how to read this tab
guitar tuner
Autoscroll
slow
fast
+/-
esc
set tempo
stop
Help us to improve Ultimate-Guitar.com Take our survey!
×
Author
Difficulty
intermediate
                                    About this tabs version:
                                        I have supporting video tutorial for this tab which would help in easy learning.                                        
                                        // Was this info helpful?
                                        Yes
                                        No
                                    
                                
Let Me Be The One by Jimmy Bondoc

Tabs written and arranged by Edwin-E (in YouTube)
Blog: http://guitarplucking.blogspot.com
Facebook Page: http://facebook.com/EdwinGuitar


Video Tutorial:  http://www.youtube.com/watch?v=JK8RiXvl6mI


Intro: A-D--

E|-------------12--12--12----------9--9----------7--9--9------7--9--]
B|-----10--10--10----------10--12--------10--10-----------10--5-----]
G|-------------11---------------------------------------------------]
D|-------------0----------------------------------------------------]
A|------------------------------------------------------------0-----]
E|-----------------------------9-----------------7------------------]

E|-------------12--12--12----------9-------------0--]
B|-----10--10--10----------10--12-----12--10-----0--]
G|-------------11-----------------------------9--1--]
D|-----------------------------------------------2--]
A|-------------0---------------------------------2--]
E|-----------------------------9--------------7--0—-]

E|---------------------------------------------0--------]
B|-----------0h2--0-----------------0h2--0--------3-----]
G|--------2----------2--2--------2----------2--------2--]
D|-----2----------0-----------2----------0--------------]
A|--0----------------------0----------------------------]
E|------------------------------------------------------]

E|---------------------------------------------0--------]
B|-----------0h2--0-----------------0h2--0--------3-----]
G|--------2----------2--2--------2----------2--------2--]
D|-----2----------0-----------2----------0--------------]
A|--0----------------------0----------------------------]
E|------------------------------------------------------]


Verse 1:

E|-------------------------------------------------------------0--------]
B|-----0--0--0--0--0--0-----0--2--0-----------------0h2--0--------3-----]
G|-----2-----------------2-----------------------2----------2--------2--]
D|-----2--------------------0--------2--2-----2----------0--------------]
A|--0--------------------------------------0----------------------------]
E|----------------------------------------------------------------------]
Aadd9                       Dadd9            Aadd9-Dadd9 
  Somebody told me you were leavin’ I didn’t know 


E|--------------------------------]
B|-----0--0--0--0--0--0-----0--2--]
G|-----2-----------------2--------]
D|-----2--------------------0-----]
A|--0-----------------------------]
E|--------------------------------]
Aadd9                       Dadd9
  Somebody told me you’re unhappy 


E|--------------------------2--]
B|--0-----5-----------------2--]
G|-----2--4--6--2--------2-----]
D|--------------------4--------]
A|--------4--------4-----------]
E|--------------2--------------]
       C#m7    F#m
But it doesn’t show 


E|-----0--0--0--0--------------------------------5-----]
B|-----3--------------------------------------3--------]
G|-----2-----------2--2—-2--4-—6--4--------4--------1--]
D|--0--------------------------------7--4-----------2--]
A|--------------------------4-----------2-----------2--]
E|--------------------------------------------------0--]
Dadd9                              C#m7       Bm7-E
  Somebody told me that you don’t want me no more 


E|-----------------------]
B|--------0--2--0--------]
G|-----------------2--2--]
D|--2--2-----------------]
A|-----------------------]
E|-----------------------]
                           Aadd9
So you’re walkin’ out the door 


E|-------------------------------------------------------------0--------]
B|-----0--0--0--0--0--0-----0--2--0-----------------0h2--0--------3-----]
G|-----2-----------------2-----------------------2----------2--------2--]
D|-----2--------------------0--------2--2-----2----------0--------------]
A|--0--------------------------------------0----------------------------]
E|----------------------------------------------------------------------]
Aadd9                         Dadd9         Aadd9-Dadd9 
   Nobody told me you’ve been cryin’ every night


E|--------------------------------]
B|-----0--0--0--0--0--0-----0--2--]
G|-----2-----------------2--------]
D|-----2--------------------0-----]
A|--0-----------------------------]
E|--------------------------------]
Aadd9                        Dadd9
   Nobody told me you’d been dyin’ 


E|--------------------------2--]
B|--0-----5-----------------2--]
G|-----2--4--6--2--------2-----]
D|--------------------4--------]
A|--------4--------4-----------]
E|--------------2--------------]
           C#m7    F#m
But didn’t want to fight


E|-----0--0--0--0--------------------------------5-----]
B|-----3--------------------------------------3--------]
G|-----2-----------2--2—-2--4-—6--4--------4--------1--]
D|--0--------------------------------7--4-----------2--]
A|--------------------------4-----------2-----------2--]
E|--------------------------------------------------0--]
Dadd9                      C#m7                  Bm7  E
   Nobody told me that you fell out of love from me 


E|--------------------------0-----0--]
B|--------0--2--0--------0--------2--]
G|-----------------2--2--------2--0--]
D|--2--2--------------------------2--]
A|-----------------------0--------0--]
E|-----------------------------------]
                    Aadd9    A7
So I’m settin’ you free 

Refrain:

E|--------0--0--0--------------]
B|--------3--------------------]
G|--2--2--2--------2--4--6--6--]
D|--------0--------------------]
A|--------------------4--------]
E|-----------------------------]
       Dadd9         C#m7
Let me be the one to break it up 


E|-----------------------------]
B|--------------2--2-----0--2--]
G|-----------4--------2--------]
D|--7--7--7--------------------]
A|-----------2-----------0-----]
E|-----------------------------]
             Bm7             Aadd9
So you won’t have to make excuses


E|--------0--0--0--------------]
B|--------3--------------------]
G|--2--2--2--------2--4--6--6--]
D|--------0--------------------]
A|--------------------4--------]
E|-----------------------------]
          Dadd9         C#m7   
We don’t need to find a set up where 


E|--------------------------]
B|-----------2--2-----0--2--]
G|--------4--------2--------]
D|--7--7--------------------]
A|--------2-----------0-----]
E|--------------------------]
         Bm7             Aadd9
Someone wins and someone loses 


E|--------5--5--5--5--4--5--5h7--]
B|--0-----7----------------------]
G|-----2--7----------------------]
D|--------0----------------------]
A|--------------------4----------]
E|-------------------------------]
        Dadd9            C#m7
We just have to say our love was true


E|--5--7--9--7--7--5-0h2--2--]
B|------------------------3--]
G|------------------------2--]
D|------------------------0--]
A|--------9----------0-------]
E|---------------------------]
        F#m          B7
But has now become a lie


E|--------0--0--0--------------------------2-----]
B|--------3-----------------------------3--------]
G|--2--2--2--------2--4--6--4--------4--------1--]
D|--------0--------------------7--4-----------2--]
A|--------------------4-----------2-----------2--]
E|--------------------------------------------0--]
       Bm7           C#m7          Bm7     E
So I’m tellin’ you I love you one last time


E|-----------]
B|--2--0-----]
G|--------2--]
D|-----------]
A|--------0--]
E|-----------]
        Aadd9
And goodbye 

Interlude:

E|----------12--12--12----------9--9--]
B|--10--10--10----------10--12--------]
G|----------11------------------------]
D|----------0-------------------------]
A|------------------------------------]
E|--------------------------9---------]


E|-----------0--------0-----------]
B|--5--3--2--0-----3-----3--2--0--]
G|-----------1--0-----------------]
D|-----------2--------------------]
A|--2--------2--------------------]
E|-----------0--------------------]


Verse 2: Follow TABS and Chords of Verse 1

Somebody told me you still loved me 
Don’t know why 
Nobody told me that you only 
Needed time to fly 
Somebody told me that you want to come back when 
Our love is true again 

Repeat Refrain except last word

E|--------0--]
B|--0--2--0--]
G|--------2--]
D|--------2--]
A|--------0--]
E|-----------]
       Aadd9
...goodbye

Bridge:

E|--0--0--0--0--0--0--------]
B|--------------------------]
G|--------------------2--2--]
D|-----------------0--------]
A|--------------------------]
E|--------------------------]
                     Dadd9
Just turn around and walk away 


E|-----------------------------2--0--]
B|--------------------------3-----0--]
G|--2--2--4--6--4--------4--------1--]
D|-----------------7--4-----------2--]
A|--------4-----------2-----------2--]
E|--------------------------------0--]
          C#m7              Bm7-E
You don’t have to live like this 


E|--------------------2--------]
B|-----0--2--5--5--------5--2--]
G|--2--------------6-----------]
D|-----------------------------]
A|-----------4-----------------]
E|--------------------2--------]
        C#m7              F#m
If you love me still then stay 


E|-----------------------------]
B|-----0--2--3--3--3--2--0-----]
G|--2-----------------------6--]
D|-----------0-----------------]
A|--------------------------4--]
E|-----------------------------]
              Dadd9                   C#
Don’t keep me waiting for that final kiss 

E|--------2--2--2--2-----------]
B|--------------------7--5--5--]
G|--6--6-----------------------]
D|-----------------------------]
A|--------------------4--------]
E|--------2--------------------]
        F#m           C#m7
We can work together through this test 
E|-----------2--0--0--------]
B|-----------3--------3-----]
G|--6--6--6--------------6--]
D|-----------0--------------]
A|-----------------------4--]
E|--------------------------]
          Dadd9            C#m7
Or we can work through it apart 


E|--------0--0--0--1--0--------]
B|--------1-----------1--1--1--]
G|--2--2-----------------------]
D|--------------------3--------]
A|--------3--------------------]
E|-----------------------------]
        C                F
I just need to get this off my chest 


E|-----------------------0--]
B|-----------5--3--2--3--0--]
G|--2--2--2--------------1--]
D|-----------------------2--]
A|-----------2-----------2--]
E|-----------------------0--]
               Bm7            E
That you will always have my heart 


E|--7/9--7--5--7/12--9--9\7--]
B|---------------------------]
G|---------------------------]
D|---------------------------]
A|---------------------------]
E|---------------------------]
Let me be the one..

Repeat Refrain.

Outro
Suggest correction
What's this?
You can suggest a correction to this tab. Community and Mods will review your correction and vote to approve or reject it.
comments
We did not receive enough feedback on this tab! Please rate:
print report bad tab
1 2 3 4 5
guest
You may want to rate the tab now too:
select rating
Please do not post tabs as comments. Select "correction" instead!