Oops, an error
Loading. Please wait.

Havana Daydreamin Chords

version 1
version 1

Whole song

Interactive

8,093 views 18 this week
no commentswrite comment
1 2 3 4 5
accurate
x 4
add to favorites
launch autoscroll
font size
0
reset
transpose
0
reset
simplify chords
display chords
guitar tuner
Autoscroll
slow
fast
+/-
esc
set tempo
stop
Help us to improve Ultimate-Guitar.com Take our survey!
×
Difficulty
novice
Bm/A   C#m/A x
e     x      x
b     3      5
g     4      6
d     4      6
a     0      0
e     x      x

Intro A-Bm/A-C#m/A-Bm/A


A           Bm/A    C#m/A    Bm/A  fill A
Stashed his trash in Ecuador
A           Bm/A    C#m/A    Bm/A
Bought a good suit of clothes
A      Bm/A    C#m/A    Bm/A  fill B
Flew on up to Mexico
A      Bm/A    C#m/A    Bm/A
Standin' by the shore

D
Waitin' for some mystery man

To pay him for his time

But thinkin' about all the money he'd made
                          A
Couldn't help to ease his mind

 Bm/A
Havana daydreamin'
 C#m/A           Bm/A
Boy he's just dreamin'
              intro , fill A then fill C
His life away

 A     Bm/A    C#m/A       Bm/A
His daddy chopped that sugar cane
 A     Bm/A    C#m/A      Bm/A
One day he fell dead
 A     Bm/A    C#m/A      Bm/A
Jesus had a wanderin' feelin'
 A    Bm/A     C#m/A      Bm/A
Swimmin' around in his head

D
Sailin' on a midnight boat

There were no questions asked

The water so green and the air was so clean
                            A
He just stuck right to his task

 Bm/A       C#m/A
Havana daydreamin'
 Bm/A         A
Boy he's just schemin'
 Bm/A C#m/A  Bm/A    intro

His life away
----------------------------------------------------------------------------|
---17-----------------------------------------------------------------------|
---16bx3 r14----14-----------------------14----16b-16-14-16b----------------|
-------------16----16--14---------14-16-------------------------------------|
----------------------------14/16-------------------------------------------|
----------------------------------------------------------------------------|

----------------------------------------------------|
---17------------14---------------------------------|
---16bx3 r14-----14-16--14--------------14----------|
-------------16-----16--14--------14 16-------------|
----------------------------14/16-------------------|
----------------------------------------------------|

(piano instrumental) intro
 A   Bm/A     C#m/A           Bm/A  fill A
Ceilin' fan it stirs the air
 A   Bm/A     C#m/A      Bm/A Fill B
Cigar smoke does swirl
 A   Bm/A     C#m/A      Bm/A
The fragrance on the pillowcase
 A   Bm/A     C#m/A      Bm/A
And he thinks about the girl

D
Spillin' wine and sharin' good times

She sure could make him smile

He pays her well but what the hell
                               A
He'll be movin' in a little while
A   Bm/A     C#m/A   Bm/A
Havana daydreamin'
A   Bm/A     C#m/A   Bm/A
Boy he's just dreamin'
Am  Bm/A     C#m/A   Bm/A intro fill C
His life away


Havana daydreamin'

Boy he'll be dreamin'

His life away....


Fill A
-------------------------|
-------------------------|
---16b16b-16-14------14--|
-----------------16------|
-------------------------|
-------------------------|

Fill B
---------------------------|
---------------------------|
---16b16b-14-16b-14--------|
---------------------------|
---------------------------|
---------------------------|

Fill C
---------------------------------|
---------------------------------|
-----------2---------------------|
------2-4------------------   *4-|
--2/4----------------------------|
---------------------------------|
Suggest correction
comments
print report bad tab
guest
You may want to rate the tab now too:
select rating
Wanna post a correction for this tab? Suggest correction