Oops, an error
Loading. Please wait.

Margaritaville Tab

version 1
version 1

Solo

Whole song

Interactive

10,482 views 3 this week
no commentswrite comment
1 2 3 4 5
x 5
add to favorites
launch autoscroll
font size
0
reset
how to read this tab
guitar tuner
Autoscroll
slow
fast
+/-
esc
set tempo
stop
Help us to improve Ultimate-Guitar.com Take our survey!
×
Author
Difficulty
intermediate
e|--5--5--5--3—-5----5--5--5--3--2-----5--5--7--5--5—-3—-2—-0--|
B|--7--7--7--5--7----7--7--7--5--3-----7--7--8—-7--7—-5—-3—-2--|
G|-------------------------------------------------------------|
D|-------------------------------------------------------------|
A|-------------------------------------------------------------|
E|-------------------------------------------------------------|

e|--7--7--10--10—-9----9---9---9---9-----2--5--5--2—-7—-5—-3-—2—-3—-2----|
B|--8--8--12--12--10- -10--10--10--10---------------------------------3--|
G|-----------------------------------------------------------------------|
D|-----------------------------------------------------------------------|
A|-----------------------------------------------------------------------|
E|-----------------------------------------------------------------------|


e|--3--3--3--2—-0----2--2--2--0--------------------------------|
B|--5--5--5--3--2----3--3--3--2--3-----------------------------|
G|-------------------------------2-----------------------------|
D|-------------------------------------------------------------|
A|-------------------------------------------------------------|
E|-------------------------------------------------------------|
Suggest correction
comments
print report bad tab
guest
You may want to rate the tab now too:
select rating
Wanna post a correction for this tab? Suggest correction