Oops, an error
Loading. Please wait.

Margaritaville Tab

version 2
version 2

Whole song

Interactive

Video

2,756 views 150 this week
no commentswrite comment
1 2 3 4 5
please rate
add to favorites
launch autoscroll
font size
0
reset
how to read this tab
guitar tuner
Autoscroll
slow
fast
+/-
esc
set tempo
stop
Help us to improve Ultimate-Guitar.com Take our survey!
×
Author
Difficulty
intermediate
MARGARITAVILLE

As recorded by Jimmy Buffett
(From the 1977 Album CHANGES IN LATITUDES, CHANGES IN ATTITUDES)

Words and Music by Jimmy Buffett

Transcribed by Slowhand


Gtr I (E A D G B E) - 'Jimmy Buffett - Acoustic Guitar'
Gtr II (E A D G B E) - 'Billy Puett - Recorder'
Gtr III (E A D G B E) - 'Billy Puett - Flute'


 Intro
  Q=125
  D                   G                   A7          A7sus4
 4/4
  Gtr I (Ac. Gtr.)
  E E E E +E  E  q    Q   E E +E  E  q    E E E E +E  E Q
|-2-2-2-2-(2)-2--2--|-3---3-3-(3)-3--3--|-0-0-0-0-(0)-0-0---|
|-3-3-3-3-(3)-3--3--|-0---0-0-(0)-0--0--|-2-2-2-2-(2)-3-3---|
|-2-2-2-2-(2)-2--2--|-0---0-0-(0)-0--0--|-0-0-0-0-(0)-0-0---|
|-0-0-0-0-(0)-0--0--|-0---0-0-(0)-0--0--|-2-2-2-2-(2)-2-2---|
|-------------------|-------------------|-0-0-0-0-(0)-0-0---|
|-------------------|-3---3-3-(3)-3--3--|-------------------|
|
| Gtrs II, III (Recorder & Flute arr. for Gtr.)
| E E E E +E  Q.      E E E E +E  Q.      e Q   E +E  e e E
|-5-5-5-3-(3)-5-----|-5-5-5-3-(3)-5-----|-7-7---7-(7)-5-3-2-|
|-7-7-7-5-(5)-7-----|-7-7-7-5-(5)-7-----|-8-8---8-(8)-7-5-3-|
|-------------------|-------------------|-------------------|
|-------------------|-------------------|-------------------|
|-------------------|-------------------|-------------------|
|-------------------|-------------------|-------------------|


                                          1st - 3rd Verses
                                       $
  D                                 Dsus4  D
   Q   E E +E  E E E   +E  E E E Q  Q      Q  E E +E  Q  E
|--2---2-2-(2)-2-2-2-|-(2)-2-2-2-2--3--||--2--2-2-(2)-2--2-|
|--3---3-3-(3)-3-3-3-|-(3)-3-3-3-3--3--||o-3--3-3-(3)-3--3-|
|--2---2-2-(2)-2-2-2-|-(2)-2-2-2-2--2--||--2--2-2-(2)-2--2-|
|--0---0-0-(0)-0-0-0-|-(0)-0-0-0-0--0--||--0--0-0-(0)-0--0-|
|--------------------|-----------------||o-----------------|
|--------------------|-----------------||------------------|
|
| +W                    W                  W
|-(2)----------------|-----------------||------------------|
|-(3)----------------|-----------------||o-----------------|
|--------------------|-----------------||------------------|
|--------------------|-----------------||------------------|
|--------------------|-----------------||o-----------------|
|--------------------|-----------------||------------------|


                                                     Dsus4
  +Q   E E +E  E Q    E E Q  E E E E   +E  E E E +E  E Q
|-(2)--2-2-(2)-2-2--|-2-2-2--2-2-2-2-|-(2)-2-2-2-(2)-3-3--|
|-(3)--3-3-(3)-3-3--|-3-3-3--3-3-3-3-|-(3)-3-3-3-(3)-3-3--|
|-(2)--2-2-(2)-2-2--|-2-2-2--2-2-2-2-|-(2)-2-2-2-(2)-2-2--|
|-(0)--0-0-(0)-0-0--|-0-0-0--0-0-0-0-|-(0)-0-0-0-(0)-0-0--|
|-------------------|----------------|--------------------|
|-------------------|----------------|--------------------|


  D
  E E E E +E  E E E   +E  E E E +E  E Q
|-2-2-2-2-(2)-2-2-2-|-(2)-2-2-2-(2)-2-2--|
|-3-3-3-3-(3)-3-3-3-|-(3)-3-3-3-(3)-3-3--|
|-2-2-2-2-(2)-2-2-2-|-(2)-2-2-2-(2)-2-2--|
|-0-0-0-0-(0)-0-0-0-|-(0)-0-0-0-(0)-0-0--|
|-------------------|--------------------|
|-------------------|--------------------|


  A                              Asus4
  Q  E E +E  E E E   +E  E E E E E E E
|-0--0-0-(0)-0-0-0-|-(0)-0-0-0-0-0-0-0--|
|-2--2-2-(2)-2-2-2-|-(2)-2-2-2-2-3-3-3--|
|-2--2-2-(2)-2-2-2-|-(2)-2-2-2-2-2-2-2--|
|-2--2-2-(2)-2-2-2-|-(2)-2-2-2-2-2-2-2--|
|-0--0-0-(0)-0-0-0-|-(0)-0-0-0-0-0-0-0--|
|------------------|--------------------|


  A                                   Asus4
  E E E E +E  E E E   +E  E E E +E  E E E
|-0-0-0-0-(0)-0-0-0-|-(0)-0-0-0-(0)-0-0-0-|
|-2-2-2-2-(2)-2-2-2-|-(2)-2-2-2-(2)-2-3-3-|
|-2-2-2-2-(2)-2-2-2-|-(2)-2-2-2-(2)-2-2-2-|
|-2-2-2-2-(2)-2-2-2-|-(2)-2-2-2-(2)-2-2-2-|
|-0-0-0-0-(0)-0-0-0-|-(0)-0-0-0-(0)-0-0-0-|
|-------------------|---------------------|


  A                                   A7sus4
  E E E E +E  E E E   +E  E E E +E  E E E
|-0-0-0-0-(0)-0-0-0-|-(0)-0-0-0-(0)-0-0-0--|
|-2-2-2-2-(2)-2-2-2-|-(2)-2-2-2-(2)-2-3-3--|
|-2-2-2-2-(2)-2-2-2-|-(2)-2-2-2-(2)-2-0-0--|
|-2-2-2-2-(2)-2-2-2-|-(2)-2-2-2-(2)-2-2-2--|
|-0-0-0-0-(0)-0-0-0-|-(0)-0-0-0-(0)-0-0-0--|
|-------------------|----------------------|


  A
  E E E E +E  E E E   +E  E E E +E  E E E
|-0-0-0-0-(0)-0-0-0-|-(0)-0-0-0-(0)-0-0-0-|
|-2-2-2-2-(2)-2-2-2-|-(2)-2-2-2-(2)-2-2-2-|
|-2-2-2-2-(2)-2-2-2-|-(2)-2-2-2-(2)-2-2-2-|
|-2-2-2-2-(2)-2-2-2-|-(2)-2-2-2-(2)-2-2-2-|
|-0-0-0-0-(0)-0-0-0-|-(0)-0-0-0-(0)-0-0-0-|
|-------------------|---------------------|


  D           DsuD4          D7
  E E E E +E  Q  E   +E  E E E +E  E E E
|-2-2-2-2-(2)-3--2-|-(2)-2-x-2-(2)-2-2-0--||
|-3-3-3-3-(3)-3--3-|-(3)-3-x-1-(1)-1-1-0--||
|-2-2-2-2-(2)-2--2-|-(2)-2-x-2-(2)-2-2-0--||
|-0-0-0-0-(0)-0--0-|-(0)-0-x-0-(0)-0-0-0--||
|------------------|----------------------||
|------------------|----------------------||


 Chorus
  G               A7             D        DsuD7
  Q  E E Q  E E   Q  Q  E E Q    Q  E E E Q  E   +E  E E E E E E E
|-3--3-3-3--3-3-|-0--0--0-0-0--|-2--2-2-2-3--2-|-(2)-2-2-2-2-2-2-0--|
|-0--0-0-0--0-0-|-2--2--2-2-2--|-3--3-3-3-3--1-|-(1)-1-1-1-1-1-1-0--|
|-0--0-0-0--0-0-|-0--0--0-0-0--|-2--2-2-2-2--2-|-(2)-2-2-2-2-2-2-0--|
|-0--0-0-0--0-0-|-2--2--2-2-2--|-0--0-0-0-0--0-|-(0)-0-0-0-0-0-0-0--|
|---------------|-0--0--0-0-0--|---------------|--------------------|
|-3--3-3-3--3-3-|--------------|---------------|--------------------|


  G               A7             D        DsuD7
  Q  E E Q  E E   Q  Q  E E Q    Q  E E E Q  E   +E  E E E E E E E
|-3--3-3-3--3-3-|-0--0--0-0-0--|-2--2-2-2-3--2-|-(2)-2-2-2-2-2-2-0--|
|-0--0-0-0--0-0-|-2--2--2-2-2--|-3--3-3-3-3--1-|-(1)-1-1-1-1-1-1-0--|
|-0--0-0-0--0-0-|-0--0--0-0-0--|-2--2-2-2-2--2-|-(2)-2-2-2-2-2-2-0--|
|-0--0-0-0--0-0-|-2--2--2-2-2--|-0--0-0-0-0--0-|-(0)-0-0-0-0-0-0-0--|
|---------------|-0--0--0-0-0--|---------------|--------------------|
|-3--3-3-3--3-3-|--------------|---------------|--------------------|


  G                 A7             D    A/C#   G/B
  Q  E E +E  E Q    Q  Q  E E Q    H    H      H    +E  E E E
|-3--3-3-(3)-3-3--|-0--0--0-0-0--|-2---------|-----------------|
|-0--0-0-(0)-0-0--|-2--2--2-2-2--|-3---------|-3----(3)-3-3-3--|
|-0--0-0-(0)-0-0--|-0--0--0-0-0--|-2----2----|-0----(0)-0-0-0--|
|-0--0-0-(0)-0-0--|-2--2--2-2-2--|-0----2----|-0----(0)-0-0-0--|
|-----------------|-0--0--0-0-0--|------4----|-2----(2)-2-2-2--|
|-3--3-3-(3)-3-3--|--------------|-----------|-----------------|


                               To Coda
  A7   A7sus4   A7
  Q  E E +E  Q  E    E  E E E +E  E Q
|-0--0-0-(0)-0--0-|--0--0-0-0-(0)-0-0--|
|-2--2-3-(3)-3--2-|--2--2-2-2-(2)-2-2--|
|-0--0-0-(0)-0--0-|--0--0-0-0-(0)-0-0--|
|-2--2-2-(2)-2--2-|--2--2-2-2-(2)-2-2--|
|-0--0-0-(0)-0--0-|--0--0-0-0-(0)-0-0--|
|-----------------|--------------------|
|
| Gtrs II, III
| Q  e e  e  Q  E   +W
|----7-7--7--5--3-|-(3)----------------|
|----8-8--8--7--5-|-(5)----------------|
|-----------------|--------------------|
|-----------------|--------------------|
|-----------------|--------------------|
|-----------------|--------------------|


  D                             G/B
  E E E E +E  E E E   +E  E E E E E Q
|-2-2-2-2-(2)-2-2-2-|-(2)-2-2-2----------||
|-3-3-3-3-(3)-3-3-3-|-(3)-3-3-3-3---3---o||
|-2-2-2-2-(2)-2-2-2-|-(2)-2-2-2-0---0----||
|-0-0-0-0-(0)-0-0-0-|-(0)-0-0-0-0---0----||
|-------------------|-----------0h2-2---o||
|-------------------|--------------------||
|
| Q   e e  e  Q   E   +W
|-----5-5--5--3---2-|-(2)----------------||
|-----7-7--7--5---3-|-(3)---------------o||
|-------------------|--------------------||
|-------------------|--------------------||
|-------------------|-------------------o||
|-------------------|--------------------||


 Interlude
  D
  Q  E E +E  E E E   +E  E E E +E  E Q    Q  E E +E  E E E   +E  Q  E E E Q
|-2--2-2-(2)-2-2-2-|-(2)-2-2-2-(2)-2----|-2--2-2-(2)-2-2-2-|-(2)-2--2-2-2-0---|
|-3--3-3-(3)-3-3-3-|-(3)-3-3-3-(3)-3-3--|-3--3-3-(3)-3-3-3-|-(3)-3--3-3-3-0---|
|-2--2-2-(2)-2-2-2-|-(2)-2-2-2-(2)-2-0--|-2--2-2-(2)-2-2-2-|-(2)-2--2-2-2-0---|
|-0--0-0-(0)-0-0-0-|-(0)-0-0-0-(0)-0-0--|-0--0-0-(0)-0-0-0-|-(0)-0--0-0-0-0---|
|------------------|--------------------|------------------|------------------|
|------------------|--------------------|------------------|------------------|


                 Dsus4   D   Dsus4
  Q  E E +E  E E E   +E  E E E +E  E E E
|-2--2-2-(2)-2-2-3-|-(3)-2-2-3-(3)-2-2-0-|
|-3--3-3-(3)-3-3-3-|-(3)-3-3-3-(3)-3-3-0-|
|-2--2-2-(2)-2-2-2-|-(2)-2-2-2-(2)-2-2-0-|
|-0--0-0-(0)-0-0-0-|-(0)-0-0-0-(0)-0-0-0-|
|------------------|---------------------|
|------------------|---------------------|


  A             AsAs4
  E E E E +E  E E E   +E  E E E E E Q
|-0-0-0-0-(0)-0-0-0-|-(0)-0-0-0-0-0-0---|
|-2-2-2-2-(2)-2-3-2-|-(2)-2-2-2-2-2-2---|
|-2-2-2-2-(2)-2-2-2-|-(2)-2-2-2-2-2-2---|
|-2-2-2-2-(2)-2-2-2-|-(2)-2-2-2-2-2-2---|
|-0-0-0-0-(0)-0-0-0-|-(0)-0-0-0-0-0-0---|
|-------------------|-------------------|


  G                 A7              D    A/C#   G/B
  Q  E E +E  E Q    Q  E E E E Q    H    H      H.      Q
|-3--3-3-(3)-3-3--|-0--0-0-0-0-0--|-2---------|-------------|
|-0--0-0-(0)-0-0--|-2--2-2-2-2-0--|-3---------|-3-----------|
|-0--0-0-(0)-0-0--|-0--0-0-0-0-0--|-2----2----|-0-----------|
|-0--0-0-(0)-0-0--|-2--2-2-2-2-0--|-0----2----|-0-----------|
|-----------------|-0--0-0-0-0----|------4----|-2-----------|
|-3--3-3-(3)-3-3--|---------------|-----------|-------------|


                                                               D.S. al Coda
  A7         A7suA7                      D          DsuD4            G/B
  Q  E E +E  E E E   E E E E +E  E E E   Q  E E +E  Q  E   +E  E E E E E Q
|-0--0-0-(0)-0-0-0-|-0-0-0-0-(0)-0-0-0-|-2--2-2-(2)-3--2-|-(2)-2-2-2---------||
|-2--2-2-(2)-3-3-2-|-2-2-2-2-(2)-2-2-2-|-3--3-3-(3)-3--3-|-(3)-3-3-3-3---3---||
|-0--0-0-(0)-0-0-0-|-0-0-0-0-(0)-0-0-0-|-2--2-2-(2)-2--2-|-(2)-2-2-2-0---0---||
|-2--2-2-(2)-2-2-2-|-2-2-2-2-(2)-2-2-2-|-0--0-0-(0)-0--0-|-(0)-0-0-0-0---0---||
|-0--0-0-(0)-0-0-0-|-0-0-0-0-(0)-0-0-0-|-----------------|-----------0h2-2---||
|------------------|-------------------|-----------------|-------------------||


                                     Out-Chorus
  &
  D         DsusD         D7          G               A7
  E E E E E E E E   E E E E E E q     Q  E E E E Q    Q  E E E E q
|-2-2-2-2-2-3-3-2-|-2-2-0-2-2-2-2--||-3--3-3-3-3-3--|-0--0-0-0-0-0---|
|-3-3-3-3-3-3-3-3-|-3-3-0-1-1-1-1--||-0--0-0-0-0-0--|-2--2-2-2-2-2---|
|-2-2-2-2-2-2-2-2-|-2-2-0-2-2-2-2--||-0--0-0-0-0-0--|-0--0-0-0-0-0---|
|-0-0-0-0-0-0-0-0-|-0-0-0-0-0-0-0--||-0--0-0-0-0-0--|-2--2-2-2-2-2---|
|-----------------|----------------||---------------|-0--0-0-0-0-0---|
|-----------------|----------------||-3--3-3-3-3-3--|----------------|


  D    A/C#   G/B          A7   A7sus4
  H    H      H.      Q    Q  E E +E  E E E   E E E E +E  E Q
|-2---------|------------|-0--0-0-(0)-0-0-0-|-0-0-0-0-(0)-0-----|
|-3---------|-3----------|-2--2-3-(3)-3-3-2-|-2-2-2-2-(2)-2-0---|
|-2----2----|-0----------|-0--0-0-(0)-0-0-0-|-0-0-0-0-(0)-0-0---|
|-0----2----|-0----------|-2--2-2-(2)-2-2-2-|-2-2-2-2-(2)-2-0---|
|------4----|-2----------|-0--0-0-(0)-0-0-0-|-0-0-0-0-(0)-0-----|
|-----------|------------|------------------|-------------------|


  D
  E E E E +E  E  Q    Q   E E  E  E  Q
|-2-2-2-2-(2)-2--2--|-3---3-3-----3--3--|
|-3-3-3-3-(3)-3--3--|-0---0-0-----0--0--|
|-2-2-2-2-(2)-2--2--|-0---0-0-----0--0--|
|-0-0-0-0-(0)-0--0--|-0---0-0-----0--0--|
|-------------------|-------------------|
|-------------------|-3---3-3-----3--3--|
|
| Gtrs II, III
| E E E E +E  Q.      E E E E +E  Q.
|-5-5-5-3-(3)-5-----|-5-5-5-3-(3)-5-----|
|-7-7-7-5-(5)-7-----|-7-7-7-5-(5)-7-----|
|-------------------|-------------------|
|-------------------|-------------------|
|-------------------|-------------------|
|-------------------|-------------------|


  A7    A7sus4  A7    D    G/BD
  E E E E +E  E Q      Q   Q  H      +W
|-0-0-0-0-(0)-0-0---|--2------2----|-(2)----*|
|-2-2-2-3-(3)-3-2---|--3---3--3----|-(3)----*|
|-0-0-0-0-(0)-0-0---|--2---0--2----|-(2)----*|
|-2-2-2-2-(2)-2-2---|--0---0--0----|-(0)----*|
|-0-0-0-0-(0)-0-0---|------2-------|--------*|
|-------------------|--------------|--------*|
|
| e Q   E +E  e e E   +W              W
|-7-7---7-(7)-5-3-2-|-(2)----------|--------*|
|-8-8---8-(8)-7-5-3-|-(3)----------|--------*|
|-------------------|--------------|--------*|
|-------------------|--------------|--------*|
|-------------------|--------------|--------*|
|-------------------|--------------|--------*|


Duration Legend
---------------
W - whole; H - half; Q - quarter; E - 8th; S - 16th; T - 32nd; X - 64th; a - acciaccatura
+ - note tied to previous; . - note dotted; .. - note double dotted
Uncapitalized letters represent notes that are staccato (1/2 duration)
Irregular groupings are notated above the duration line
Duration letters will always appear directly above the note/fret number it represents the
duration for.  Duration letters with no fret number below them represent rests.  Multi-
bar rests are notated in the form Wxn, where n is the number of bars to rest for.  Low
melody durations appear below the staff

Tablature Legend
----------------
 h   - hammer-on
 p   - pull-off
 b   - bend
 pb  - pre-bend
 r   - bend release (if no number after the r, then release immediately)
 /\  - slide into or out of (from/to "nowhere")
 s   - legato slide
 S   - shift slide
  - natural harmonic
[n]  - artificial harmonic
n(n) - tapped harmonic
 ~   - vibrato
 tr  - trill
 T   - tap
 TP  - trem. picking
 PM  - palm muting
\n/  - tremolo bar dip; n = amount to dip
 \n  - tremolo bar down
 n/  - tremolo bar up
/n\  - tremolo bar inverted dip
 =   - hold bend; also acts as connecting device for hammers/pulls
 <>  - volume swell (louder/softer)
 x   - on rhythm slash represents muted slash
 o   - on rhythm slash represents single note slash

Misc Legend
-----------
 |  - bar
||  - double bar
||o - repeat start
o|| - repeat end
*|  - double bar (ending)
 :  - bar (freetime)
 $  - Segno
 &  - Coda
Tempo markers -  = BPM(8/16=s8/s16), where s8 = swing 8ths, s16 = swing 16ths
Suggest correction
Give kudos to tab author, rate the tab!
1 2 3 4 5
comments
print report bad tab
guest
You may want to rate the tab now too:
select rating
Please do not post tabs as comments. Select "correction" instead!