Oops, an error
Loading. Please wait.

Why Dont We Get Drunk Chords

version 1
version 1

Whole song

Interactive

64,402 views 120 this week
5 commentsread comments
1 2 3 4 5
excellent!
x 31
add to favorites
launch autoscroll
font size
0
reset
transpose
0
reset
simplify chords
display chords
guitar tuner
Autoscroll
slow
fast
+/-
esc
set tempo
stop
Help us to improve Ultimate-Guitar.com Take our survey!
×
[Verse]

      D             D7             G              D
      I really do,  appreciate  the fact you're   sittin' here.
      D                  G                       E7
      Your voice sounds  so wonderful   but your face don't
             A7
      look too clear.
         G                          D
      So barmaid bring a pitcher,   another round o' brew,
           G                A          D        D7
      Honey why don't we get drunk and screw...


[Chorus]

          G               A          D
          Why don't we get drunk and screw?
          E7                             A7
          I just bought a waterbed filled up for me and you.
              G
          They say you are a snuff queen,
                 D
          Honey I don't think that's true.
               G               A          D
          So,  why don't we get drunk and screw.

(spoken: "Take it Coral Reefers, here we go...") 


[Chorus]

          G               A          D
          Why don't we get drunk and screw?
          E7                             A7
          I just bought a waterbed filled up for me and you.
              G
          They say you are a snuff queen,
                 D
          Honey I don't think that's true.
               G               A          D

Suggest correction
What's this?
You can suggest a correction to this tab. Community and Mods will review your correction and vote to approve or reject it.
comments
print report bad tab
5 comments total. Showing first comments.
0 reply
jam@more 13 wrote on November 26 2011, 09:20 pm

yay!! So glad you did this song!!

I found a discrepancy (minor tho it is):
1) Chorus, first line only: I don't hear the A chord there... plus, the melody line fits better w/ the G carried over.

Thanks again and hope this is helpful to anyone!
Jam more

0 reply
techtoons 13 wrote on February 17 2014, 11:35 pm, edited at 11:36 pm

Typos, etc... Jury's out on snow queen vs snuff queen. Snow queen makes more sense... Why don't we get drunk and screw-Jimmy Buffere-|----2-----2--------|---------|-B-|----3-----3--------|---------|-G-|----2-----2---(x3)-|---------|-D-|-0-----------------|-0-------|-A-|-------0-----------|---0-2-4-|-E-|-------------------|---------|-e-|----2-----2--|----2-----2--|----3-----3--|----2-----2--|-B-|----3-----3--|----1-----1--|----0-----0--|----3-----3--|-G-|----2-----2--|----2-----2--|----0-----0--|----2-----2--|-D-|-0-----------|-0-----------|----0-----0--|-0-----------|-A-|-------0-----|-------0-----|-------2-----|-------0-----|-E-|-------------|-------------|-3-----------|-------------|-I really do appreciate the fact you're sittin' here.e-|----2-----2--|----2-----2--|----3-----3--|----2-----2--|-B-|----3-----3--|----1-----1--|----0-----0--|----3-----3--|-G-|----2-----2--|----2-----2--|----0-----0--|----2--2--2--|-D-|-0-----------|-0-----------|----0-----0--|----0--------|-A-|-------0-----|-------0-----|-------2-----|-0-----------|-E-|-------------|-------------|-3-----------|-------------|-You're voice sounds so wonderful but your face don't look too clear.e-|----3-----3--|----3-----3--|----2-----2--|----2-----2--|-B-|----0-----0--|----0-----0--|----3-----3--|----3-----3--|-G-|----0-----0--|----0-----0--|----2--2--2--|----2--2--2--|-D-|----0--0-----|----0--0-----|-0-----------|-0-----------|-A-|----2--------|----2--------|-------------|-------------|-E-|-3-----------|-3-----------|-------------|-------------|-bar maid bring a pitcher. Another round of brew.e-|-------------|----------0--|----2-----2--|----2-----2--|-B-|----0-----0--|----3-----0--|----3--3--3--|----1--1--1--|-G-|----0-----0--|----3--3--3--|----2-----2--|----2-----2--|-D-|----0--0--0--|----3--------|-0-----------|-0-----------|-A-|----2--------|-0-----------|-------------|-------------|-E-|-3-----------|-------------|-------------|-------------|-So honey why don't we get drunk and screwe-|----3-----3--|-------------|----2-----2--|----2-----2--|-B-|----0-----0--|----3-----3--|----3--3--3--|----1--1--1--|-G-|----0-----0--|----3--3--3--|----2-----2--|----2-----2--|-D-|----0-----0--|----3-----3--|-0-----------|-0-----------|-A-|----2--2-----|-0-----------|-------------|-------------|-E-|-3-----------|-------------|-------------|-------------|-Why don't we get drunk and screwe-|----2-----2--|----2-----2--|----2-----2--|----2-----2--|-B-|----0--0--0--|----0--0--0--|----1--1--1--|----1--1--1--|-G-|----1-----1--|----1-----1--|----1-----1--|----1-----1--|-D-|----2-----2--|----2-----2--|-1--1-----1--|-1--1-----1--|-A-|-2-----------|-2-----------|-------------|-------------|-E-|-------------|-------------|-------------|-------------|-I just bought a water bed, it's filled up for me and youe-|----3-----3--|----3-----3--|----2-----2--|----2-----2--|-B-|----0-----0--|----0-----0--|----3-----3--|----1-----1--|-G-|----0-----0--|----0-----0--|----2--2--2--|----2--2--2--|-D-|----0--0--0--|----0--0--0--|-------------|-------------|-A-|----2--------|----2--------|-0-----------|-0-----------|-E-|-3-----------|-3-----------|-------------|-------------|-They say you are a snow queen. Honey I don't think that's truee-|----3-----3--|----0-----0--|----2-----2--|----2-----2--|-B-|----0-----0--|----3-----3--|----3-----3--|----3-----3--|-G-|----0-----0--|----3-----3--|----2--2--2--|----2--2--2--|-D-|----0-----0--|----3--3--3--|-0-----------|-0-----------|-A-|----2--2-----|-0-----------|-------------|-------------|-E-|-3-----------|-------------|-------------|-------------|-Why don't we get drunk and screw
(violin solo) e-|----3-----3--|----------0--|----2-----2--|----2-----2--|-B-|----0-----0--|----3-----3--|----3--3--3--|----1--1--1--|-G-|----0-----0--|----3-----3--|----2-----2--|----2-----2--|-D-|----0-----0--|----3--3--3--|-0-----------|-0-----------|-A-|----2--2--2--|-0-----------|-------------|-------------|-E-|-3-----------|-------------|-------------|-------------|-Why don't we get drunk and screwe-|----2-----3--|----2-----2--|----2-----2--|----2-----2--|-B-|----0-----0--|----0-----0--|----1-----1--|----1-----1--|-G-|----1-----1--|----1-----1--|----1--1--1--|----1--1--1--|-D-|----2--2--2--|----2--2--2--|-1-----------|-1-----------|-A-|-2-----------|-2-----------|-------------|-------------|-E-|-------------|-------------|-------------|-------------|-I just bought a water bed, it's filled up for me and youe-|----3-----1--|----3-----3--|----2-----2--|----2-----2--|-B-|----0-----0--|----0-----0--|----3-----3--|----3-----3--|-G-|----0-----0--|----0-----0--|----2--2--2--|----2--2--2--|-D-|----0-----0--|----0-----0--|-0-----------|-0-----------|-A-|----2--2-----|----2--2-----|-------------|-------------|-E-|-3-----------|-3-----------|-------------|-------------|-They say you are a snow queen. H

0 reply
techtoons 13 wrote on February 17 2014, 11:39 pm

whoa, totaled that listing.

Why don?t we get drunk and screw
-Jimmy Buffer
e-|----2-----2--------|---------|-
B-|----3-----3--------|---------|-
G-|----2-----2---(x3)-|---------|-
D-|-0-----------------|-0-------|-
A-|-------0-----------|---0-2-4-|-
E-|-------------------|---------|-

e-|----2-----2--|----2-----2--|----3-----3--|----2-----2--|-
B-|----3-----3--|----1-----1--|----0-----0--|----3-----3--|-
G-|----2-----2--|----2-----2--|----0-----0--|----2-----2--|-
D-|-0-----------|-0-----------|----0-----0--|-0-----------|-
A-|-------0-----|-------0-----|-------2-----|-------0-----|-
E-|-------------|-------------|-3-----------|-------------|-

I really do appreciate the fact you?re sittin' here.

e-|----2-----2--|----2-----2--|----3-----3--|----2-----2--|-
B-|----3-----3--|----1-----1--|----0-----0--|----3-----3--|-
G-|----2-----2--|----2-----2--|----0-----0--|----2--2--2--|-
D-|-0-----------|-0-----------|----0-----0--|----0--------|-
A-|-------0-----|-------0-----|-------2-----|-0-----------|-
E-|-------------|-------------|-3-----------|-------------|-

You?re voice sounds so wonderful but your face don?t look too clear.

e-|----3-----3--|----3-----3--|----2-----2--|----2-----2--|-
B-|----0-----0--|----0-----0--|----3-----3--|----3-----3--|-
G-|----0-----0--|----0-----0--|----2--2--2--|----2--2--2--|-
D-|----0--0-----|----0--0-----|-0-----------|-0-----------|-
A-|----2--------|----2--------|-------------|-------------|-
E-|-3-----------|-3-----------|-------------|-------------|-

bar maid bring a pitcher. Another round of brew.

e-|-------------|----------0--|----2-----2--|----2-----2--|-
B-|----0-----0--|----3-----0--|----3--3--3--|----1--1--1--|-
G-|----0-----0--|----3--3--3--|----2-----2--|----2-----2--|-
D-|----0--0--0--|----3--------|-0-----------|-0-----------|-
A-|----2--------|-0-----------|-------------|-------------|-
E-|-3-----------|-------------|-------------|-------------|-

So honey why don?t we get drunk and screw

e-|----3-----3--|-------------|----2-----2--|----2-----2--|-
B-|----0-----0--|----3-----3--|----3--3--3--|----1--1--1--|-
G-|----0-----0--|----3--3--3--|----2-----2--|----2-----2--|-
D-|----0-----0--|----3-----3--|-0-----------|-0-----------|-
A-|----2--2-----|-0-----------|-------------|-------------|-
E-|-3-----------|-------------|-------------|-------------|-

Why don?t we get drunk and screw


e-|----2-----2--|----2-----2--|----2-----2--|----2-----2--|-
B-|----0--0--0--|----0--0--0--|----1--1--1--|----1--1--1--|-
G-|----1-----1--|----1-----1--|----1-----1--|----1-----1--|-
D-|----2-----2--|----2-----2--|-1--1-----1--|-1--1-----1--|-
A-|-2-----------|-2-----------|-------------|-------------|-
E-|-------------|-------------|-------------|-------------|-

I just bought a water bed, it?s filled up for me and you

e-|----3-----3--|----3-----3--|----2-----2--|----2-----2--|-
B-|----0-----0--|----0-----0--|----3-----3--|----1-----1--|-
G-|----0-----0--|----0-----0--|----2--2--2--|----2--2--2--|-
D-|----0--0--0--|----0--0--0--|-------------|-------------|-
A-|----2--------|----2--------|-0-----------|-0-----------|-
E-|-3-----------|-3-----------|-------------|-------------|-

They say you are a snuff queen. Honey I don?t think that?s true

e-|----3-----3--|----0-----0--|----2-----2--|----2-----2--|-
B-|----0-----0--|----3-----3--|----3-----3--|----3-----3--|-
G-|----0-----0--|----3-----3--|----2--2--2--|----2--2--2--|-
D-|----0-----0--|----3--3--3--|-0-----------|-0-----------|-
A-|----2--2-----|-0-----------|-------------|-------------|-
E-|-3-----------|-------------|-------------|-------------|-

Why don?t we get drunk and screw

(violin solo)

e-|----3-----3--|----------0--|----2-----2--|----2-----2--|-
B-|----0-----0--|----3-----3--|----3--3--3--|----1--1--1--|-
G-|----0-----0--|----3-----3--|----2-----2--|----2-----2--|-
D-|----0-----0--|----3--3--3--|-0-----------|-0-----------|-
A-|----2--2--2--|-0-----------|-------------|-------------|-
E-|-3-----------|-------------|-------------|-------------|-

Why don?t we get drunk and screw

e-|----2-----3--|----2-----2--|----2-----2--|----2-----2--|-
B-|----0-----0--|----0-----0--|----1-----1--|----1-----1--|-
G-|----1-----1--|----1-----1--|----1--1--1--|----1--1--1--|-
D-|----2--2--2--|----2--2--2--|-1-----------|-1-----------|-
A-|-2-----------|-2-----------|-------------|-------------|-
E-|-------------|-------------|-------------|-------------|-

I just bought a water bed, it?s filled up for me and you

e-|----3-----1--|----3-----3--|----2-----2--|----2-----2--|-
B-|----0-----0--|----0-----0--|----3-----3--|----3-----3--|-
G-|----0-----0--|----0-----0--|----2--2--2--|----2--2--2--|-
D-|----0-----0--|----0-----0--|-0-----------|-0-----------|-
A-|----2--2-----|----2--2-----|-------------|-------------|-
E-|-3-----------|-3-----------|-------------|-------------|-

They say you are a snuff queen. Honey I don?t think that?s true.

e-|----3----

guest
You may want to rate the tab now too:
select rating
Please do not post tabs as comments. Select "correction" instead!