Oops, an error
Loading. Please wait.

Venus In Blue Jeans Bass Tab

10 views 1 this week
no commentswrite comment
1 2 3 4 5
3 more votes to show rating
add to favorites
launch autoscroll
font size
0
reset
guitar tuner
Autoscroll
slow
fast
+/-
esc
set tempo
stop
Help us to improve Ultimate-Guitar.com Take our survey!
×
Author
Difficulty
novice
Tabbed by: 6METAL6BASSIST6
E-mail: petergriffinav@gmail.com

Tuning: EADG

G|--------------------------------------------5-------5-----------|.
D|------------6-------6-----------3-----------------------3-------|.
A|4-----------------------4---------------------------------------|.
E|----------------------------------------------------------------|.
                                                                   . x2
G|----------------------------------------------------------------|.
D|------------8-------8-----------6-----------6---6---6---6-------|.
A|6-----------------------6-----------------------------------4---|.
E|----------------------------------------------------------------|.

0:18

G|--------------------------------------------5-------5-----------|
D|------------6-------6-----------3-----------------------3-------|
A|4-----------------------4---------------------------------------|
E|----------------------------------------------------------------|

G|----------------------------------------------------------------|
D|4-----------6-------6---6-------------------6-------6-----------|
A|--------------------------------4-----------------------4-------|
E|----------------------------------------------------------------|

G|----------------------------------------------------------------|
D|------------6-------6---6-------8-----------------------8-------|
A|6-------------------------------------------8-------8-----------|
E|----------------------------------------------------------------|

G|----------------------------------------------------------------|
D|--------------------------------6-------6---6---8---------------|
A|6-----------6-------6---6-------------------------------4-------|
E|----------------------------------------------------------------|

0:35

G|--------------------------------------------5-------5-----------|
D|------------6-------6-----------3-----------------------3-------|
A|4-----------------------4---------------------------------------|
E|----------------------------------------------------------------|

G|----------------------------------------------------------------|
D|4-----------6-------6---6-------------------6-------6-----------|
A|--------------------------------4-----------------------4-------|
E|----------------------------------------------------------------|

G|----------------------------------------------------------------|
D|------------6-------6---6-------------------8-------------------|
A|6-------------------------------8-------------------8---8-------|
E|----------------------------------------------------------------|

G|----------------------------------------------------------------|
D|------------6-----------6-------------------------------3-------|
A|6-------------------6-----------4-------4---4---4---4-----------|
E|----------------------------------------------------------------|

0:52

G|----------------------------------------------------------------|
D|----4-------4---4-------4-------3---3-------3---3-------3-------|
A|----------------------------------------------------------------|
E|----------------------------------------------------------------|

G|----------------------------------------------------------------|
D|----------------6-------6-----------------------------------3---|
A|6---6-------6-------------------4---4-------4---4---4---4-------|
E|----------------------------------------------------------------|

G|----------------------------------------------------------------|
D|----4-------4---4-------4-------3---3-------3---3-------3-------|
A|----------------------------------------------------------------|
E|----------------------------------------------------------------|

G|----------------------------------------------------------------|
D|--------------------------------6-------6---6---8---8-----------|
A|6---------------6---------------------------------------4---4---|
E|----------------------------------------------------------------|

1:10

G|--------------------------------------------5-------5-----------|
D|------------6-------6-----------3-----------------------3-------|
A|4-----------------------4---------------------------------------|
E|----------------------------------------------------------------|

G|----------------------------------------------------------------|
D|4-----------6-------6---6-------6-----------8-------8---8-------|
A|----------------------------------------------------------------|
E|----------------------------------------------------------------|

G|----------------------------------------------------------------|
D|------------6-------6---6-------------------8-------8-----------|
A|6-------------------------------8-----------------------8-------|
E|----------------------------------------------------------------|

G|----------------------------------------------------------------|
D|--------------------------------6-----------6-------6---6-------|
A|6-----------6-------6---6---------------------------------------|
E|----------------------------------------------------------------|

1:27

G|----------------------------------------------------------------|
D|------------6-------6-----------3-----------------------3-------|
A|4-----------------------4-------------------3-------3-----------|
E|----------------------------------------------------------------|

G|--------------------------------------------------------------------|
D|------4-----4-----4-----4-----4---------------------7---7-----------|
A|------------------------------------7-----7-----7-------------------|
E|------------------------------------------------------------5---5---|

1:35

G|--------------------------------------------6-------6-----------|
D|------------7-------7-----------4-----------------------4-------|
A|5-----------------------5---------------------------------------|
E|----------------------------------------------------------------|

G|----------------------------------------------------------------|
D|5-----------7-------7---7-------7-------------------------------|
A|----------------------------------------------------------------|
E|--------------------------------------------7-------7---7-------|

G|----------------------------------------------------------------|
D|------------7-------7---7---------------------------------------|
A|7-------------------------------9-------------------------------|
E|--------------------------------------------7-------7---7-------|

G|----------------------------------------------------------------|
D|--------------------------------7-----------7-----------7---7---|
A|7-----------7-------7---7---------------------------------------|
E|----------------------------------------------------------------|

G|--------------------------------|
D|7---------------7-------7-------|
A|--------------------------------|
E|--------------------------------|

1:55 until fadeout.

G|----------------------------------------------------------------|
D|------------7-------7-----------4-----------------------4-------|
A|5-----------------------5-------------------4-------4-----------|
E|----------------------------------------------------------------|

G|--------------------------------------------------------------------|
D|------5-----5-----5-----5-----5-----7-----7-----7---7---7-----------|
A|------------------------------------------------------------4---4---|
E|--------------------------------------------------------------------|
Suggest correction
Give kudos to tab author, rate the tab!
1 2 3 4 5
comments
print report bad tab
guest
You may want to rate the tab now too:
select rating
Wanna post a correction for this tab? Suggest correction