Oops, an error
Loading. Please wait.

Always Be Tab

version 1
version 1

Intro

Whole song

Interactive

8,206 views 6 this week
2 commentsread comments
1 2 3 4 5
accurate
x 4
add to favorites
launch autoscroll
font size
0
reset
how to read this tab
guitar tuner
Autoscroll
slow
fast
+/-
esc
set tempo
stop
Help us to improve Ultimate-Guitar.com Take our survey!
×
Difficulty
intermediate
Always Be Intro from Chase This Light by Jimmy Eat World

Tabbed by FoxBox
-My first tab.
-PM me for changes needed to the tab.


-PS. Its all in the timing for both guitars.

Guitar 1
e|--------------------------------------------------------------------------|
B|--------------------------------------------------------------------------|
G|-----5---------5---------5--------5--------5--------5--------5--------5---|
D|---7---7-----7---7-----7---7----7---7----7---7----7---7----7---7----7---7-|
A|-8---------8---------8--------8--------5--------5--------5--------5-------|
E|--------------------------------------------------------------------------|

Guitar 2
e|--------------------------------------------------------------------------|
B|--------------------------------------------------------------------------|
G|------5----5----5---------5----5----5---------5----5----5--------5------5-|
D|-7-------------------7-------------------7-------------------7------7-----|
A|---8-------------------8-------------------8-------------------8------8---|
E|--------------------------------------------------------------------------|


Guitar 1
e|--------------------------------------------------------------------------------|
B|--------------------------------------------------------------------------------|
G|-----2-------2-------2-------2-------2------2-------2-----2------2--------2-----|
D|---4---------------4---------------4--------------4------------4---4----4---4---|
A|-5---------5-----5---------5-----5--------5-----5-------5----5--------5---------|
E|--------------------------------------------------------------------------------|

Guitar 2
e|-------------------------------------------------------------------------------|
B|-------------------------------------------------------------------------------|
G|-----2-------------------2--------------------2--------------------2------2----|
D|-4------4----4----4----------4----4----4----------4----4----4--------4------4--|
A|---5-------------------5--------------------5--------------------5------5------|
E|-------------------------------------------------------------------------------|

-Then into main song.-
Suggest correction
comments
print report bad tab
2 comments total.
0 reply
pmtoph 10 wrote on March 24 2008, 03:42 pm

i love this song thanks man. it sounds right.

0 reply
jarretto 10 wrote on May 12 2008, 12:36 am

sounds good to me. and i mainly play chords but this works

guest
You may want to rate the tab now too:
select rating
Please do not post tabs as comments. Select "correction" instead!