Oops, an error
Loading. Please wait.

Always Be Tab

version 1
version 1

Whole song

Interactive

20,063 views 12 this week
1 commentread comment
1 2 3 4 5
x 4
add to favorites
launch autoscroll
font size
0
reset
how to read this tab
guitar tuner
Autoscroll
slow
fast
+/-
esc
set tempo
stop
Help us to improve Ultimate-Guitar.com Take our survey!
×
Author
Song:Always Be
Album:Chase This Light
Artist:Jimmy Eat World
Date Tabbed:June,2008
Guitar Tabber:Ryan Manongdo/18/Vancouver,Ca
              rhyezkie@gmail.com(gtalk)
              no_falter0x@yahoo.com(YM,friendster,facebook&myspace)

For any comments,questions or suggestions,just post a comment or PM me.Pilipino Rules!!

I would like to thank aaron6890 for some correction=)

Gtr.Legend:
. - palm muting
~ - let it ring

Gtr.1:Capo on 5th Fret
Gtr.2:W/out Capo

Gtr.Tuning:Standard(Normal)

Intro(Gtr.1):
e|-----------------------------------------------------------------------------------------------------------------------|
B|-----------------------------------------------------------------------------------------------------------------------|
G|-----0-------0--------0-------0---------0--------0--------0--------0---------------------------------------------------|
D|---2---2----2--2----2---2---2--2------2---2----2---2----2---2----2---2-------0--------0--------0--------0--------0-----|
A|-3--------3-------3--------3--------0--------0--------0--------0-----------3---3----3---3----3---3----3---3----3---3---| 
E|-------------------------------------------------------------------------1--------1--------1--------1--------1---------|
   . . . .  . .. .  . . . .  . . .    . . . .  . . . .  . . . .  . . . .   . . . .  . . . .  . . . .  . . . .  . . . . 


Verse 1:Could've been a night...
Gtr.1:
e|-------------------------------------------------------------------------------------------------|
B|-------------------------------------------------------------------------------------------------|
G|-----0------0------0------0-------0------0------0------0-----------------------------------------|
D|---2------2------2------2-------2------2------2------2--------0--------0------0-------0------0---|
A|-3------3------3------3-------0------0------0------0--------3-------3-------3-------3------3-----| 
E|---------------------------------------------------------1--------1-------1------1-------1-------|

Gtr.2
e|-1111-1111-1111-1111---|
B|-1111-3333-1111-1111---|
G|-2222-2222-3333-3333---| 2x
D|-3333-0000-3333-3333---|
A|-----------------------|
E|-----------------------|

Pre-Chorus:You cant' keep...
Gtr.1
e|----------------------3---|
B|------------------3-5-----|
G|----------------5---------|
D|-5555-7777-3333-----------|
A|-5555-7777-3333-----------|
E|-3333-5555-1111-----------|
   .... .... ....

Gtr.2
e|-0000-1111-1111---|
B|-1111-3333-1111---|
G|-0000-2222-3333---|
D|-2222-0000-3333---|
A|------------------|
E|------------------|

Chorus:I'm alone in this...
Gtr.1
e|-3333-3333-000000000000---|
B|-0000-0000-000000000000---|
G|-0000-0000-000000000000---|
D|-2222-2222-333333333333---|
A|-3333-0000-333333333333---|
E|-----------111111111111---|

Gtr.2
e|--------------------------|
B|--8-8-8-8-8-66666-66666---|
G|-1010101010-77777-77777---| 2x
D|-1010101010-77777-88888---|
A|--8-8-8-8-8-55555-88888---|
E|------------------66666---|

Verse 2:I was a boy...
Play Verse 1

Repeat Pre-Chorus:

Repeat Chorus:

Bridge:Maybe something...
Gtr.1
e|------------------|
B|------------------|
G|------------------|
D|-5555-7777-3333---|
A|-5555-7777-3333---|
E|-3333-5555-1111---|

Repeat Chorus:

Last Chord:
Gtr.1
e|------|
B|------|
G|-5~---|
D|-5~---|
A|-3~---|
E|------|

Gtr.2
e|--8~---|
B|--8~---|
G|-10~---|
D|-10~---|
A|--8~---|
E|-------|

End...


Always Be Lyrics:

Verse 1:
Could've been a night like any other
One of us has to drive
One of us gets to think
I'll force a laugh to break the silence
It's gonna get harder still
Before it gets easy

Pre-Chorus 1:
You can't keep safe what whats to break

Chorus:
I'm alone in this
I'm all as I've always been
Right behind what's happening
She's all lost in this
She's all like she'll always be
A little far for me to reach

Verse 2:
I was just a boy like every other
I thought I was something fierce
I thought I was ten times smarter
Love would be something that I just know
(Something I just know)
How you gonna know the feeling till you've lost it

Pre-Chorus 2:
I've been losing plenty since

Repeat Chorus:

Bridge:
Maybe something else I'm missing
Something good and your the reason
It's a dream but there's a real long wedding

Repeat Chorus 2x:

Suggest correction
comments
print report bad tab
1 comment total.
0 reply
basssucker 31 Jun 11, 2008 06:32 PM

dude that's a nice tab! i think the intro is played a bit different but nevermind. dude i think that in the intro part there's something like
e-------8-------------8--------------8--------8--------8-----------
B-----10-10-10-10--10---10-10-10--10---10--10---10--10---10-10-10--
G---10-------------------------------------------------------------
D------------------------------------------------------------------

continuously repeated. check it out.

guest
You may want to rate the tab now too:
select rating
Wanna post a correction for this tab? Suggest correction