Oops, an error
Loading. Please wait.

Anais Tab

version 2
version 2

Whole song

1,661 views 12 this week
no commentswrite comment
1 2 3 4 5
excellent!
x 5
add to favorites
launch autoscroll
font size
0
reset
how to read this tab
guitar tuner
Autoscroll
slow
fast
+/-
esc
set tempo
stop
Help us to improve Ultimate-Guitar.com Take our survey!
×
Author
Difficulty
novice
ok so this song is really easy to learn. You dont really need to have two electric 
guitars going at a time, the electric 2 is just there to show you how the riffs harmonize

Here are the parts I have:

Acoustic: 3 power chords, steady throughout
Electric 1: 1 simple riff played in different intervals
Electric 2: harmonizes with electric 1

Acoustic:
e -----------------------------------------------------------|
b -----------------------------------------------------------|
G -----------------------------------------------------------|
D -44444444----77777777----2222222222222222------------------|
A -44444444----77777777----2222222222222222------------------|
E -22222222----55555555----0000000000000000------------------|

Electric 1 Riff: (played throughout)
e -----------------------------------------------------------|
b ---10~--9-------10~--9-------10--9-------------------------|
G ----------11-9---------11-9---------11--9--8--9--11--9-----|
D -----------------------------------------------------------|
A -----------------------------------------------------------|
E -----------------------------------------------------------|

Electric 2 Riff: (harmonized)
e ---9~--7-------9~--7-------9--7-------------------7--------|
b ---------10-9--------10-9--------10--9--7--9--10-----------|
G -----------------------------------------------------------|
D -----------------------------------------------------------|
A -----------------------------------------------------------|
E -----------------------------------------------------------|
Suggest correction
comments
print report bad tab
guest
You may want to rate the tab now too:
select rating
Wanna post a correction for this tab? Suggest correction