Oops, an error
Loading. Please wait.

Appreciation Tab

4,897 views 3 this week
no commentswrite comment
1 2 3 4 5
accurate
x 8
add to favorites
launch autoscroll
font size
0
reset
how to read this tab
guitar tuner
Autoscroll
slow
fast
+/-
esc
set tempo
stop
Help us to improve Ultimate-Guitar.com Take our survey!
×
Author
Intro/Verse
Guitar 1
e|------------------------------|
B|------------------------------|
G|--7---777---777---7-777---444-|
D|--7---777---777---7-777---555-|
A|-(5)-(555)--555---5-555---555-|
E|--7---777---555-----------333-|

Guitar 2
e|------------------------|
B|-3-333--333--3-333--333-|
G|-2-222--222--2-222--222-|
D|-x-xxx--xxx--0-000--xxx-|
A|-2-222--000---------xxx-|
E|--------------------333-|

Verse
Guitar 3
e|---------------------------|
B|-7-777---555---7-777---888-|
G|-7-777---777---7-777---777-|
D|-7-777---777---7-777---777-|
A|---------------------------|
E|---------------------------|

Last line of verse
Guitar 1
e|--------------------------------|
B|----------------------------333-|
G|--7---777---777---77-7777---222-|
D|--7---777---777---77-7777---000-|
A|-(5)-(555)--555---55-5555---000-|
E|--7---777---555-------------333-|

Guitar 2
e|--------------------------|
B|-3-333--333--33-3333--333-|
G|-2-222--222--22-2222--222-|
D|-x-xxx--xxx--00-0000--xxx-|
A|-2-222--000-----------xxx-|
E|----------------------333-|

Guitar 3
e|-----------------------------|
B|-7-777---555---77-7777---888-|
G|-7-777---777---77-7777---777-|
D|-7-777---777---77-7777---777-|
A|-----------------------------|
E|-----------------------------|


Chorus
Guitar 1
e|-2------0------3------0------2------0-----------0------0-|
B|---3------3------3------3------3------3-------3------3---|
G|-----2------2------2------2------2------2---0------0-----|
D|---------------------------------------------------------|
A|---------------------------------------------------------|
E|---------------------------------------------------------|

Guitar 2/3
e|----------------------------------------------------|
B|----------------------------------------------------|
G|-44444--77777---------------44444-77777-------------|
D|-44444--77777--55555--22222-44444-77777-55555-55555-|
A|-22222--55555--55555--22222-22222-55555-55555-55555-|
E|---------------33333--00000-------------33333-33333-|

It sounds like theres another guitar playing this in Drop D
e|--------------------------------------------------|
B|--------------------------------------------------|
G|-44444-77777--------------44444-77777-------------|
D|-44444-77777-55555-22222--44444-77777-55555-55555-|
A|-22222-55555-55555-22222--22222-55555-55555-55555-|
D|-------00000-55555-22222--------00000-55555-55555-|


Between Chorus and Verse 2
Guitar 1
e|------------------------------|
B|--------------------------333-|
G|--7---777---777---7-777---222-|
D|--7---777---777---7-777---000-|
A|-(5)-(555)--555---5-555---xxx-|
E|--7---777---555-----------333-|

Guitar 2
e|------------------------|
B|-3-333--333--3-333--333-|
G|-2-222--222--2-222--222-|
D|-x-xxx--xxx--0-000--xxx-|
A|-2-222--000---------xxx-|
E|--------------------333-|

Guitar 3
e|----------|
B|----------|
G|-77777777-|
D|-77777777-|
A|----------|
E|----------|


Repeat Verse and Chorus

Bridge (same as Chorus, but Guitar 2 and 3 switch to acoustic, and sounds like all 
guitars add some delay etc)


Solo
Guitar 2/3
e|-------------------------|---------|
B|-------------------------|---------|
G|-44444-77777-------------|---------|
D|-44444-77777-55555-55555-|-555-555-|
A|-22222-55555-55555-55555-|-555-555-|
E|-------------33333-33333-|-333-333-|

Guitar 1
e|--------------------------------------------------------------------------------------|
B|----------------------------------------0---------------------------------------------|
G|----------------------------------------4b--------------------------------------------|
D|-7--------------------------------------------7---------------------------------------|
A|---9-7h99-7h99--7\5-2\0---2/4/5/7\4--22---------9-7h99-7h99--7\5-2\0---2/4/5/7\4--222-|
E|--------------------------------------------------------------------------------------|

Guitar 4?
e|-------------------------|---------|
B|-------------------------|---------|
G|-44444-77777-------------|---------|
D|-44444-77777-55555-55555-|-555-555-|
A|-22222-55555-55555-55555-|-555-555-|
D|-------00000-55555-55555-|-555-555-|


Repeat Chorus
Guitar 2/3 switches to this during "Strange we've come to find ourselves)
e|-----------------------------------------------------------------|
B|-----------------------------------------------------------------|
G|-----------------------------------------------------------------|
D|-----------------------------------------------------------------|
A|-22/44/5-----55\4----------------22/44/5-----55\4----------------|
E|----------55--------333333-00000----------55-------333333-333333-|

Another guitar plays this for last few seconds
e|-17t-|
B|-----|
G|-----|
D|-----|
A|-----|
E|-----|
Suggest correction
comments
print report bad tab
guest
You may want to rate the tab now too:
select rating
Wanna post a correction for this tab? Suggest correction