Oops, an error
Loading. Please wait.

Big Casino Bass Tab

version 1
version 1

Whole song

Interactive

3,736 views 1 this week
1 commentread comment
1 2 3 4 5
x 4
add to favorites
launch autoscroll
font size
0
reset
guitar tuner
Autoscroll
slow
fast
+/-
esc
set tempo
stop
Help us to improve Ultimate-Guitar.com Take our survey!
×
Author
Difficulty
intermediate
First track off the new album Chase This Light! Enjoy
Tabbed by Troy.

Intro
G|------------------------------------------------------|
D|------------------------------------------------------|
A|------------------------------------------------------|
D|--0-0-0-0000-07-7-7-7777-7-0-0-0-0000-0-5-5-5-5-5555--|

G|----------------------------------------------|
D|----------------------------------------------|
A|----------------------------------------------|
D|--0-0-0-0000-0-7-7-7-7777-7-5-5-5-5555555555--|

Verse: Part 1
G|--------------------------------------|
D|--------------------------------------|
A|--5(x24)------------------------------|
D|---------4(x24)-9(x12)-7(x12)-5(x24)--|

Verse: Part 2
G|-------------------------------------------------------------------|
D|-------------------------------------------------------------------|
A|-----------------4-5-0---------------------------------------------|
D|--4/9-9~--9/7-7--------4--4/5-5-5--5/9-9--9\7-7--4~-555--454545/7--|

Chorus
G|------------------------------------------------------|
D|------------------------------------------------------|
A|------------------------------------------------------|
D|--0-0-0-0000-07-7-7-7777-7-0-0-0-0000-0-5-5-5-5-5555--|

G|---------------------------------------------------------------|
D|---------------------------------------------------------------|
A|---------------------------------------------------------------|
D|--0-0-0-0000-0-7-7-7-7777-7-5-5-5-555555/11-12-11-12-11-12/14--|

Bridge
G|------------------------------------------------------------------------|
D|------------------------------------------------------------------------|
A|---------------5(x12)---------------------------------------------------|
D|-9(x12)-7(x12)--------5(x12)--9(x12)-7(x12)--5555555/12-12-12-12-12-12--|

Chorus
G|-------------------------------|
D|-------------------------------|
A|-------------------------------|
D|--0-0-0-0000-07-7-7-7777-7-5~--|

Order:
       Intro
       Verse: Part 1 (x2)
       Verse: Part 2
       Chorus (x2)
       Verse: Part 1 (x2)

Alright, this is basically the gist of the song. There are little things here and there
did not include, because thats up to you to hear them and throw them in yourself if you
Other than that this is a pretty easy song, the timing is the toughest part. Good luck. 
comments or questions, please leave em.
       Verse: Part 2
       Chorus (x2)
       Bridge
       Chorus (x2)
       Outro
Suggest correction
comments
print report bad tab
1 comment total.
0 reply
chrisjenks 2,712 Jul 16, 2008 09:50 AM

good tab

instead of this e|-11-12-11-12-11-12/14-| at the end of the chorus i think it might be:

A|-10-9-10-9-10-9-10/12-| i.e. an octave higher that the verse ending

what do you think?

guest
You may want to rate the tab now too:
select rating
Wanna post a correction for this tab? Suggest correction