Oops, an error
Loading. Please wait.

Big Casino Tab

version 1
version 1

Whole song

Interactive

27,493 views 18 this week
9 commentsread comments
1 2 3 4 5
excellent!
x 17
add to favorites
launch autoscroll
font size
0
reset
how to read this tab
guitar tuner
Autoscroll
slow
fast
+/-
esc
set tempo
stop
Help us to improve Ultimate-Guitar.com Take our survey!
×
Author
Difficulty
-------------------------------------------------------------------------------
                             Big Casino - Jimmy Eat World
-------------------------------------------------------------------------------
Tabbed by: Kieran Roberts
Email: ForzaFerrari20@gmail.com

Tuning: Guitar 1 & 3 are Standard
        Guitar 2 is Drop D (DADGBE)

This is my first tab, and what a song to start off with! J.E.W.'s new CD should be amazing!
This is attempt numero 2, thank you to FacingUsAll and Nathanial White!
Send me some constructive criticism please.


Intro: (0:00-0:16)

Guitar 1
e|---------------------------------------------------------------------------|
B|---------------------------------------------------------------------------|
G|--7777777777777777---------------------------------------------------------|
D|--xxxxxxxxxxxxxxxx--(repeat)-----------------------------------------------|
A|--5555555555555555---------------------------------------------------------|
E|---------------------------------------------------------------------------|

Guitar 2
e|---------------------------------------------------------------------------|
B|---------------------------------------------------------------------------|
G|---------------------------------------------------------------------------|
D|-------------------0-----7-----0-----5-----0-----7-----5-------------------|
A|-------------------0-----7-----0-----5-----0-----7-----5-------------------|
D|-------------------0-----7-----0-----5-----0-----7-----5-------------------|

Guitar 3
e|-------------------------------------------10----9--5-5h7---5--------------|
B|----------------------------------------------------------------3----------|
G|---------------------------------------------------------------------------|
D|---------------------------------------------------------------------------|
A|---------------------------------------------------------------------------|
E|---------------------------------------------------------------------------|

Verse: (0:17-0:45)

Guitar 1  repeat once
e|---------------------------------------------------------------------------|
B|---------------------------------------------------------------------------|
G|--7777777777777777------------------44444444-22222222----------------------|
D|--xxxxxxxxxxxxxxxx-4444444444444444-xxxxxxxx-xxxxxxxx-5555555555555555-----|
A|--5555555555555555-xxxxxxxxxxxxxxxx-22222222-00000000-xxxxxxxxxxxxxxxx-----|
E|-------------------2222222222222222-------------------3333333333333333-----|

Pre-Chorus: (0:46-0:59)

Guitar 1
e|---------------------------------------------------------------------------|
B|---------------------------------------------------------------------------|
G|--4444444444444444-2222222222222222-7777777777777777-------------------------|
D|--xxxxxxxxxxxxxxxx-xxxxxxxxxxxxxxxx-xxxxxxxxxxxxxxxx-5555555555555555--------|
A|--2222222222222222-0000000000000000-5555555555555555-xxxxxxxxxxxxxxxx--------|
E|-----------------------------------------------------3333333333333333--------|

Guitar 3
e|------------------------------------------10----9--5-5h7/------------------|
B|----3---5-3-----------3---5-3-------------------------------------------------|
G|------2-----------------2---------------------------------------------------|
D|---------------------------------------------------------------------------|
A|---------------------------------------------------------------------------|
E|---------------------------------------------------------------------------|

Chorus: (1:00-1:27)

Guitar 1
e|---------------------------------------------------------------------------|
B|---------------------------------------------------------------------------|
G|--7777777777777777------------------44444444-22222222----------------------|
D|--xxxxxxxxxxxxxxxx-4444444444444444-xxxxxxxx-xxxxxxxx-5555555555555555-----|
A|--5555555555555555-xxxxxxxxxxxxxxxx-22222222-00000000-xxxxxxxxxxxxxxxx-----|
E|-------------------2222222222222222-------------------3333333333333333-----|

Guitar 2 (repeat)
e|---------------------------------------------------------------------------|
B|---------------------------------------------------------------------------|
G|---------------------------------------------------------------------------|
D|--0-----7-----0-----5-----0-----7-----5------------------------------------|
A|--0-x8--7-x8--0-x8--5-x8--0-x8--7-x8--5-x16--------------------------------|
D|--0-----7-----0-----5-----0-----7-----5------------------------------------|

Guitar 3 (tremolo pick and repeat)
e|-/17----(15)/17-----15----14----12----10-----------------------------------|
B|---------------------------------------------------------------------------|
G|---------------------------------------------------------------------------|
D|---------------------------------------------------------------------------|
A|---------------------------------------------------------------------------|
E|---------------------------------------------------------------------------|


Repeat Verse: (1:28-1:56)
Repeat Pre-Chorus: (1:57-2:10)
Repeat Chorus: (2:11-2:38)

Bridge: (2:39-2:52) I don't think guitar 2 plays here, correct me if I'm wrong!

Guitar 1 (keep strumming all of these)
e|---------------------------------------------------------------------------|
B|---------------------------------------------------------------------------|
G|----------------------7----------------------------------------------------|
D|----9--------7--------x--------5--------9--------7--------5----------xxxx--|
A|----x--------x--------5--------x--------x--------x--------x----------xxxx--|
E|----7--------5-----------------3--------7--------5--------3----------xxxx--|

Guitar 3 (tremolo picking)
e|---------------------------------------------------------------------------|
B|----0--------2--------3--------5--------7--------8--------10---------------|
G|---------------------------------------------------------------------------|
D|---------------------------------------------------------------------------|
A|---------------------------------------------------------------------------|
E|---------------------------------------------------------------------------|

Chorus: (2:53-3:21)

Guitar 1
e|---------------------------------------------------------------------------|
B|---------------------------------------------------------------------------|
G|--7777777777777777------------------44444444-22222222----------------------|
D|--xxxxxxxxxxxxxxxx-4444444444444444-xxxxxxxx-xxxxxxxx-5555555555555555-----|
A|--5555555555555555-xxxxxxxxxxxxxxxx-22222222-00000000-xxxxxxxxxxxxxxxx-----|
E|-------------------2222222222222222-------------------3333333333333333-----|

Guitar 2 (repeat)
e|---------------------------------------------------------------------------|
B|---------------------------------------------------------------------------|
G|---------------------------------------------------------------------------|
D|--0-----7-----0-----5-----0-----7-----5------------------------------------|
A|--0-x8--7-x8--0-x8--5-x8--0-x8--7-x8--5-x16--------------------------------|
D|--0-----7-----0-----5-----0-----7-----5------------------------------------|

Guitar 3 (tremolo pick and repeat)
e|-/17----(15)/17-----15----14----12----10-----------------------------------|
B|---------------------------------------------------------------------------|
G|---------------------------------------------------------------------------|
D|---------------------------------------------------------------------------|
A|---------------------------------------------------------------------------|
E|---------------------------------------------------------------------------|

Outro: (3:22-3:40)

Guitar 2
e|------------------------------|
B|------------------------------|
G|------------------------------|
D|--0-----7----0-5--------------|
A|--0-----7----0-5----let-ring--|
D|--0-----7----0-5--------------|

Guitar 3
e|--10----9----5h7---5-------------------------------------------------------|
B|-----------------------3---------------------------------------------------|
G|---------------------------------------------------------------------------|
D|---------------------------------------------------------------------------|
A|---------------------------------------------------------------------------|
E|---------------------------------------------------------------------------|

Thanks for bearing with me! Make sure you rate!

| /  slide up
| \  slide down
| h  hammer-on
| p  pull-off
| ~  vibrato
| +  harmonic
| x  Mute note
===============================================================================
Suggest correction
What's this?
You can suggest a correction to this tab. Community and Mods will review your correction and vote to approve or reject it.
comments
print report bad tab
9 comments total. Showing first comments.
0 reply
FacingUsAll 820 wrote on August 29 2007, 08:10 pm

Nice work :).

I *think* the verses sound better this way.

e|---------------------------------------------------------------------------|
B|---------------------------------------------------------------------------|
G|--7777777777777777------------------44444444-22222222----------------------|
D|--xxxxxxxxxxxxxxxx-4444444444444444-xxxxxxxx-xxxxxxxx-5555555555555555-----|
A|--5555555555555555-xxxxxxxxxxxxxxxx-22222222-00000000-xxxxxxxxxxxxxxxx-----|
E|-------------------2222222222222222-------------------3333333333333333-----|

0 reply
kmilongo 1,094 wrote on September 1 2007, 05:18 pm

i had just downloaded the song and you had already tabbed it
what a fast and good job hahaha
5 stars :)

0 reply
kmilongo 1,094 wrote on September 1 2007, 05:20 pm

and FacingUsAll is right, the verse sounds better the way he plays it.
but i believe you only need to hit the A and E string. whatever.

guest
You may want to rate the tab now too:
select rating
Please do not post tabs as comments. Select "correction" instead!