Oops, an error
Loading. Please wait.

Big Casino Tab

version 2
version 2

Whole song

Interactive

2,144 views 3 this week
1 commentread comment
1 2 3 4 5
accurate
x 2
add to favorites
launch autoscroll
font size
0
reset
how to read this tab
guitar tuner
Tab Pro tools
  • play this tab
  • loop segment
  • change instrument
  • show fretboard
  • metronome
Autoscroll
slow
fast
+/-
esc
set tempo
stop
Contributor
Difficulty
Tuning
intermediate
D A D G B E
This is a fairly new song that i love so i wanted to give it a shot. This is my first 
so cut me some slack :)


Tuning: Both guitars drop D (Dadgbe)


Intro:

Guitar 1
e|-----------------------------------------------|
b|-----------------------------------------------|
g|---7777777777777777----------------------------|
d|---xxxxxxxxxxxxxxxx----------------------------|
a|---5555555555555555----------------------------|
E|-----------------------------------------------|

Guitar 1
e|-----------------------------------------------|
b|-----------------------------------------------|
g|-----------------------------------------------|
d|-----0-----7-----0-----5-----0-----7----5------|
a|-----0-x7--7-x7--0-x7--5-x7--0-x7--7-x7-5-x7---|
E|-----0-----7-----0-----5-----0-----7----5------|

Guitar 2
e|-----------------------------------------------|
b|---15--14--10/12--10--3~~----------------------|
g|-----------------------------------------------|
d|-----------------------------------------------|
a|-----------------------------------------------|
E|-----------------------------------------------|

Verse:

Guitar 1 (only)
Play palm muted
e|------------------------------------------------|
b|------------------------------------------------|
g|------------------------------2-----------------|
d|---7-(x16)-----------4-(x8)---2-(x8)------------| (repeat 2x)
a|---5-------4-(x16)---2--------0--------5-(x16)--|
E|-----------4---------------------------5--------|

Pre-Chorus:

Guitar 1
e|------------------------------------------------|
b|------------------------------------------------|
g|----------2-------------------------------------|
d|--4-(x8)--2-(x8)--7-(x8)------------------------|
a|--2-------0-------5-------5-(x8)----------------|
E|--------------------------5---------------------|

Guitar 2
e|------------------------------------------------|
b|--7----10----------7-----10---------------------|
g|------------------------------------------------|
d|------------------------------------------------|
a|------------------------------------------------|
E|------------------------------------------------|

Guitar 1
e|-------------------------------------------------|
b|-------------------------------------------------|
g|-----------2-------------------------------------|
d|--4-(x8)---2-(x8)--------------------------------|
a|--2--------0--------5-(x8)-----------------------|
E|--------------------5----------------------------|

Guitar 2
e|-------------------------------------------------|
b|--/15------14---10-12~---------------------------|
g|-------------------------------------------------|
d|-------------------------------------------------|
a|-------------------------------------------------|
E|-------------------------------------------------|

Chorus:

Guitar 1
e|------------------------------------------------------------|
b|------------------------------------------------------------|
g|--7-------2-------7----------------7-------2----------------|
d|--7-(x8)--2-(x8)--7-(x8)-----------7-(x8)--2-(x8)-----------|
a|--5-------0-------5-------5-(x16)--5-------0-------5-(x16)--|
E|--------------------------5------------------------5--------|

Guitar 2
tremelo pick
e|--/17------------/17------15-------14------12------10-------|
b|------------------------------------------------------------|
g|------------------------------------------------------------|
d|------------------------------------------------------------|
a|------------------------------------------------------------|
E|------------------------------------------------------------|

                            (Repeat chorus 2 times!)


Verse
pre-chorus
chorus

Bridge:
Guitar 1
e|------------------------------------------------------------|
b|------------------------------------------------------------|
g|----------2-------------------------------2-----------------|
d|--4-(x8)--2-(x8)--7-(x8)----------4-(x8)--2-(x8)------------|
a|--2-------0-------5-------5-(x8)--2-------0-------5-(x16)---|
E|--------------------------5-----------------------5---------|


Back to Chorus


Ending
Guitar 1
e|------------------------------------|
b|------------------------------------|
g|-------2-----------2----------------|
d|--7----2------4----2----0~----------| (let last chord ring)
a|--5----0----0-2----0----0~----------|
E|------------------------0~----------|

| /  slide up
| h  hammer-on
| p  pull-off
| ~  vibrato
| x  Mute note
==========================================================================

There u go. this is the whole tab and im almost 100% certain this is right. comment for 
other suggestions or mistakes. again, first tab so go easy on me :p
comments
We did not receive enough feedback on this tab! Please rate:
print report bad tab
1 2 3 4 5
1 comment total.
0 reply
carlyroxmysox wrote on November 20 2007, 04:51 pm

Your missing some guitar parts. And at the beginning, the chords are only strummed once.

I want to post or [tab]
guest
You may want to rate the tab now too:
select rating
Please do not post tabs as comments. Select "correction" instead!