Oops, an error
Loading. Please wait.

Chase This Light Tab

version 1
version 1

Whole song

16,103 views 9 this week
no commentswrite comment
1 2 3 4 5
x 6
add to favorites
launch autoscroll
font size
0
reset
how to read this tab
guitar tuner
Autoscroll
slow
fast
+/-
esc
set tempo
stop
Help us to improve Ultimate-Guitar.com Take our survey!
×
Author
Tuning
Capo
D A D G B E
4th fret
JIMMY EAT WORLD - CHASE THIS LIGHT

***CAPO ON 4th FRET***

***DROP D TUNING***

This is just a tab of one of the guitars that is played it songs and yeah hope it helps you out.

Intro/Verse: (play this as many times as needed)

e|-------0------0----------------0------0------|
B|---------------------------------------------|
G|----2------2---------2------2------2------2--|
D|---------------------------------------------|
A|-4------4--------4-------4------4------4-----|
D|---------------------------------------------|

e|-------0------0----------------0------0------|
B|---------------------------------------------|
G|----2------2---------2------2------2------2--|
D|---------------------------------------------|
A|-2------2--------2-------2------2------2-----|
D|---------------------------------------------|

e|-------0------0----------------0------0------|
B|---------------------------------------------|
G|----2------2---------2------2------2------2--|
D|---------------------------------------------|
A|---------------------------------------------|
D|-4------4--------4-------0------0------0-----|

e|-------0------0----------------0------0------|
B|---------------------------------------------|
G|----2------2--------2-------2------2------2--|
D|---------------------------------------------|
A|-0------0--------0-------0------0------0-----|
D|---------------------------------------------|


Chorus:

e|-------0------0----------------0------0------|
B|---------------------------------------------|
G|----2------2---------2------2------2------2--|
D|---------------------------------------------|
A|---------------------------------------------|
D|-4------4--------4-------0------0------0-----|

e|-------0------0----------------0------0------|
B|---------------------------------------------|    
G|----2------2--------2-------2------2------2--|
D|---------------------------------------------|
A|-0------0--------0-------0------0------0-----|
D|---------------------------------------------|

e|-------0------0----------------0------0------|
B|---------------------------------------------|
G|----2------2---------2------2------2------2--|
D|---------------------------------------------|
A|---------------------------------------------|
D|-4------4--------4-------0------0------0-----|

e|-------0------0----------------0------0------|
B|---------------------------------------------|    
G|----2------2--------2-------2------2------2--|
D|---------------------------------------------|
A|-0------0--------0-------0------0------0-----|
D|---------------------------------------------|

e|-------0------0----------------0------0------|
B|---------------------------------------------|
G|----2------2---------2------2------2------2--|
D|---------------------------------------------|
A|---------------------------------------------|
D|-4------4--------4-------0------0------0-----|

e|-------0------0----------------0------0------|
B|---------------------------------------------|    
G|----2------2--------2-------2------2------2--|
D|---------------------------------------------|
A|-0------0--------0-------2------2------2-----|
D|---------------------------------------------|

e|-------0------0----------------0------0------|
B|---------------------------------------------|
G|----2------2---------2------2------2------2--|
D|---------------------------------------------|
A|---------------------------------------------|
D|-4------4--------4-------0------0------0-----|

e|-------0------0----------------0------0------|
B|---------------------------------------------|    
G|----2------2--------2-------2------2------2--|
D|---------------------------------------------|
A|-0------0--------0-------0------0------0-----|
D|---------------------------------------------|


Bridge:

e|-------0------0----------------0------0------|
B|---------------------------------------------|
G|----2------2---------2------2------2------2--|
D|---------------------------------------------|
A|---------------------------------------------|
D|-4------4--------4-------4------4------4-----|

e|-------0------0----------------0------0------|
B|---------------------------------------------|
G|----2------2---------2------2------2------2--|
D|---------------------------------------------|
A|---------------------------------------------|
D|-0------0--------0-------0------0------0-----|

e|-------0------0----------------0------0------|
B|---------------------------------------------|
G|----2------2--------2-------2------2------2--|
D|---------------------------------------------|
A|-0------0--------0-------0------0------0-----|
D|---------------------------------------------|

e|-------0------0----------------0------0------|
B|---------------------------------------------|
G|----2------2--------2-------2------2------2--|
D|---------------------------------------------|
A|-2------2--------2-------2------2------2-----|
D|---------------------------------------------|

Last Chorus:

e|-------0------0----------------0------0------|
B|---------------------------------------------|
G|----2------2---------2------2------2------2--|
D|---------------------------------------------|
A|---------------------------------------------|
D|-4------4--------4-------0------0------0-----|

e|-------0------0----------------0------0------|
B|---------------------------------------------|    
G|----2------2--------2-------2------2------2--|
D|---------------------------------------------|
A|-0------0--------0-------0------0------0-----|
D|---------------------------------------------|

e|-------0------0----------------0------0------|
B|---------------------------------------------|
G|----2------2---------2------2------2------2--|
D|---------------------------------------------|
A|---------------------------------------------|
D|-4------4--------4-------0------0------0-----|

e|-------0------0----------------0------0------|
B|---------------------------------------------|    
G|----2------2--------2-------2------2------2--|
D|---------------------------------------------|
A|-0------0--------0-------0------0------0-----|
D|---------------------------------------------|

e|-------0------0----------------0------0------|
B|---------------------------------------------|
G|----2------2---------2------2------2------2--|
D|---------------------------------------------|
A|---------------------------------------------|
D|-4------4--------4-------0------0------0-----|

e|-------0------0----------------0------0------|
B|---------------------------------------------|    
G|----2------2--------2-------2------2------2--|
D|---------------------------------------------|
A|-0------0--------0-------2------2------2-----|
D|---------------------------------------------|

e|-------0------0----------------0------0------|
B|---------------------------------------------|
G|----2------2---------2------2------2------2--|
D|---------------------------------------------|
A|---------------------------------------------|
D|-4------4--------4-------0------0------0-----|

e|-------0------0----------------0------0------|
B|---------------------------------------------|    
G|----2------2--------2-------2------2------2--|
D|---------------------------------------------|
A|-0------0--------0-------0------0------0-----|
D|---------------------------------------------|

e|-------0------0----------------0------0------|
B|---------------------------------------------|
G|----2------2---------2------2------2------2--|
D|---------------------------------------------|
A|---------------------------------------------|
D|-4------4--------4-------0------0------0-----|

e|-------0------0----------------0------0------|
B|---------------------------------------------|    
G|----2------2--------2-------2------2------2--|
D|---------------------------------------------|
A|-0------0--------0-------2------2------2-----|
D|---------------------------------------------|

e|-------0------0----------------0------0------|
B|---------------------------------------------|
G|----2------2---------2------2------2------2--|
D|---------------------------------------------|
A|---------------------------------------------|
D|-4------4--------4-------0------0------0-----|

e|-------0------0----------------0------0------|
B|---------------------------------------------|    
G|----2------2--------2-------2------2------2--|
D|---------------------------------------------|
A|-0------0--------0-------0------0------0-----|
D|---------------------------------------------|

e|-----0~~--------------------------|
B|-----0~~--------------------------|
G|-----2~~--------------------------|
D|-----2~~--------------------------|
A|-----0~~--------------------------|
D|-----X----------------------------|


ORDER:
Intro/Verse
Chorus
Intro/Verse
Chorus
Bridge
Intro/Verse
Last Chorus


Thankyou and goodnight. JIMMY EAT WORLD OWNS .
Suggest correction
comments
print report bad tab
guest
You may want to rate the tab now too:
select rating
Wanna post a correction for this tab? Suggest correction