Oops, an error
Loading. Please wait.

Clarity Tab

version 1
version 1

Whole song

Interactive

7,441 views 6 this week
1 commentread comment
1 2 3 4 5
x 5
add to favorites
launch autoscroll
font size
0
reset
how to read this tab
guitar tuner
Autoscroll
slow
fast
+/-
esc
set tempo
stop
Help us to improve Ultimate-Guitar.com Take our survey!
×
-------------------------------------------------------------------------------
                           Clarity - Jimmy Eat World
-------------------------------------------------------------------------------
Tabbed: Andy Picker 

Standard Tuning
^ bend

Guitar 1              Play 2x
e|--x------------------------------------------------------------------------|
B|--x----------------------------------------------------------1-1-1-1-1-1---|
G|--x-(x7)-6-6-6-6-6-6-6-6-4-4-4-4-4-4-4-4-------------2-2-2-2-2-2-2-2-2-2---| 
D|--x------6-6-6-6-6-6-6-6-4-4-4-4-4-4-4-4-7-7-7-7-7-7-2-2-2-2-2-2-2-2-2-2---|
A|--x------4-4-4-4-4-4-4-4-2-2-2-2-2-2-2-2-7-7-7-7-7-7-0-0-0-0-0-0-0-0-0-0---|
E|--x--------------------------------------5-5-5-5-5-5-----------------------|

Guitar 2              Play 2x

e|--0-0-0-0-0-0-0-0-0-0-0-0-0-4-0-0-0-0-0-0-0-0-0-0-0-0-0-0--|
B|--4-5-4-5-7-5-4-5-4-5-4-5-7---7-4-4-5-4-5-5-5-4-5-4-5-5-5--|
G|-----------------------------------------------------------|
D|-----------------------------------------------------------|
A|-----------------------------------------------------------|
E|-----------------------------------------------------------|

“now in the deep and down…”    Play 2x

e|----------------------------------4-------------------------------|
B|--4-5-4-5-5h7p5-4-5-5-4-5-4-5-4-7---7-4-4-5-4-5-5-5-4-5-4-5-5-5---|
G|------------------------------------------------------------------|
D|------------------------------------------------------------------|
A|------------------------------------------------------------------|
E|------------------------------------------------------------------|

Guitar 1                Play 2x
This part isn’t right…but there is something like that in there
“I don’t know how but I know I want out”
e|----------------------------------------|
B|----------------------------------------|
G|--11-11----9-9----7-7-7-7-7-------------|
D|---x--x----x-x----x-x-x-x-x-------------|
A|---9--9----7-7----5-5-5-5-5-------------|
E|----------------------------------------|

Guitar 2               
“I don’t know how but I know I want out
e|---------------------------------------------------|
B|---------------------------------------------------|
G|---------------------------------------------------|
D|--7-7-7-7-7-7-7-7-7-2-2-2-2-2-2-2-2-2--------------|
A|--5-5-5-5-5-5-5-5-5-0-0-0-0-0-0-0-0-0--------------|
E|--5-5-5-5-5-5-5-5-5-0-0-0-0-0-0-0-0-0--------------|






Chorus
Guitar 1         
e|-------------------------------------------------------------------|
B|-------------------------------------------------------------------|
G|-------------------------------------------------------------------|
D|--7-7---7-7-7---2-2-----2-2-2--4-4-4-4-4-4-4-4-7-7-7-7-7-7-7-7-7---|
A|--5-5---5-5-5---2-2-----2-2-2--4-4-4-4-4-4-4-4-5-5-5-5-5-5-5-5-5---|
E|--5-5---5-5-5---0-0-----0-0-0--2-2-2-2-2-2-2-2-5-5-5-5-5-5-5-5-5---|
Guitar 2
               Continue to play until last time through
e|-0-0-0-0-0-0-----------------------------------------------------------|
B|-4-5-7-4-5-4-----------------------------------------------------------|
G|------------------------------2-2-2-2-2-2-2----------------------------|
D|-------------2-2-2-2-2-2-2-2--2-2-2-2-2-2-2----------------------------|
A|-------------2-2-2-2-2-2-2-2--0-0-0-0-0-0-0----------------------------|
E|-------------0-0-0-0-0-0-0-0-------------------------------------------|

Then on last time through for guitar 2

e|---0-0-0-0-0-0-0-0-0-----------------------------------------------|
B|---7-7-7-7-7-7-7-7-7----------------------------------^-^-^-^------|
G|------------------------------------------------------8-8-8-8------|
D|----------------------4-4-4-4-4-4-4-7-7-7-7-7-7-7-7-7-7-7-7-7------|
A|----------------------4-4-4-4-4-4-4-7-7-7-7-7-7-7-5-7-7-7-7-7------|
E|----------------------2-2-2-2-2-2-2-5-5-5-5-5-5-5-5-5-5-5-5-5------|
                       |-palm mute into no mute|


And last time through for guitar 1 
“I shouldn’t its not enough”
e|---------------------------------------------------------------------------|
B|---------------------------------------------------------------------------|
G|---------------------------------------------------------------------------|
D|--5-7-4--4-2-4-2-----------------------------------------------------------|
A|---------------------------------------------------------------------------|
E|---------------------------------------------------------------------------|

Solo rhythm backing

e|-----------------------------------------------------------|
B|---5---------------------1---------------------------------|
G|---6-(8x)-4-(8x)---------2-(8x)----------------------------|
D|---4------4------7-------2---------------------------------|
A|---4------2------7-(8x)--0---------------------------------|
E|-----------------5-----------------------------------------|

Solo (exact rhythm not tabbed, all pull offs and hammer ons)
e|---------------------------------------------------------------------------|
B|--8-9-8-9-8-9-8-9-8-9------------------------------------------------------|
G|----------------------9-11-9-11-9-11-9-10-9-10-9-10-8-9-8-9-8-9------------|
D|---------------------------------------------------------------------------|
A|---------------------------------------------------------------------------|
E|---------------------------------------------------------------------------|




End like this

e|-------------------------------------------------------------------|
B|------------------------------------------------------^-^-^-^------|
G|------------------------------------------------------8-8-8-8------|
D|----------------------4-4-4-4-4-4-4-7-7-7-7-7-7-7-7-7-7-7-7-7------|
A|----------------------4-4-4-4-4-4-4-7-7-7-7-7-7-7-5-7-7-7-7-7------|
E|----------------------2-2-2-2-2-2-2-5-5-5-5-5-5-5-5-5-5-5-5-5------|
                       |----slight palm mute---|

Suggest correction
comments
print report bad tab
1 comment total.
0 reply
staticprevails 150 Mar 21, 2003 12:00 AM

good tab

guest
You may want to rate the tab now too:
select rating
Wanna post a correction for this tab? Suggest correction