Oops, an error
Loading. Please wait.

Closer Bass Tab

version 1
version 1

Whole song

Interactive

777 views 1 this week
no commentswrite comment
1 2 3 4 5
2 more votes to show rating
add to favorites
launch autoscroll
font size
0
reset
guitar tuner
Autoscroll
slow
fast
+/-
esc
set tempo
stop
Help us to improve Ultimate-Guitar.com Take our survey!
×
Author
0:10 (Verse)

G|-----------------|
D|-----------------|
A|-----------------|
E|-22-222-2-2-222--|

0:49 (Chorus)

G|----------------------------------------------------------------|
D|----------------------------------------------------------------|
A|-66-666-6-6-666--22-222-2-2-222------------------44-444-4-4-444-|
E|---------------------------------22-222-2-2-222-----------------|

1:15 (Verse)

G|-----------------|
D|-----------------|
A|-----------------|
E|-22-222-2-2-222--|

1:48 (Chorus)

G|----------------------------------------------------------------|
D|----------------------------------------------------------------|
A|-66-666-6-6-666--22-222-2-2-222------------------44-444-4-4-444-|
E|---------------------------------22-222-2-2-222-----------------|

2:15 (Interlude)

G|-----------------|
D|-----------------|
A|-----------------|
E|-22-222-2-2-222--|

3:41 (Guitar Solo)

G|---------------------------------------------------------|
D|---------------------------------------------------------|
A|-6666666666666666\222222222222--------------444444444444-|
E|-------------------------------222222222222--------------|

4:32 (Verse & Coda)

G|-----------------|
D|-----------------|
A|-----------------|
E|-22-222-2-2-222--|

Hopefully that's given you a rough idea...
Suggest correction
Give kudos to tab author, rate the tab!
1 2 3 4 5
comments
print report bad tab
guest
You may want to rate the tab now too:
select rating
Wanna post a correction for this tab? Suggest correction