Oops, an error
Loading. Please wait.

Coffee And Cigarettes Tab

version 1
version 1

Whole song

5,788 views 1 this week
no commentswrite comment
1 2 3 4 5
excellent!
x 5
add to favorites
launch autoscroll
font size
0
reset
how to read this tab
guitar tuner
Autoscroll
slow
fast
+/-
esc
set tempo
stop
Help us to improve Ultimate-Guitar.com Take our survey!
×
Contributor
UH-HiloMOKES 2,519
Drop d

Intro/Verses
e---------------------------------------|
b---------------------------------------|
g--------------------------333333333333-|
d-3333333333333333-0000000-333333333333-|
a-3333333333333333-0000000-111111111111-|
d-3333333333333333-0000000--------------|

Chorus
e-----------------------------------|
b-----------------------------------|
g-55555555555----------333333333333-|
d-55555555555-00000000-333333333333-|
a-33333333333-00000000-111111111111-|
d-------------00000000--------------|

Solo
Lead
e-----------------------------------------------------|
b-----------------6-5-6----------------------3--------|
g----------7----7-------7--5------------5--------5----|
d---8----8----8--------------3-3-3--3-3----3---3---3--|
a-8----8----------------------------------------------|
d-----------------------------------------------------|

e-------------------------------------------------|
b-----------------6-5-6---------------------------|
g----------7----7-------7--9-10-9-10-12-14-12-10--|
d---8----8----8------------x--x-x--x--x--x--x--x--|
a-8----8-------------------7--8-7--8-10-12-10--8--|
d-------------------------------------------------|

e----------------10-------------------------------------------------|
b-13---------13-----13-----10h11p10-11-10---------------------------|
g----10~--10-----------10-----------------12-10h12-10h12-10-9-------|
d-------------------------------------------------------------12-10-|
a-------------------------------------------------------------------|
d-------------------------------------------------------------------|

e-------------12-13-15-12-13-12-13-12-13-12-13-12-13-12-13~--|
b------------------------------------------------------------|
g----------12------------------------------------------------|
d-12-14-15---------------------------------------------------|
a------------------------------------------------------------|
d------------------------------------------------------------|

Rhythm
e------------------------------------|
b------------------------------------|
g-3333333333333333-------------------|
d-3333333333333333-33333333-00000000-|
a-1111111111111111-33333333-00000000-|
d------------------33333333-00000000-|

Post-Solo
e------------------------------------|
b------------------------------------|
g---------------------------33333333-|
d-3333333333333333-00000000-33333333-|
a-3333333333333333-00000000-11111111-|
d-3333333333333333-00000000----------|

Chorus
e-----------------------------------------------|
b-----------------------------------------------|
g-5~------3~--55555555555----------333333333333-|
d-5~--0~--3~--55555555555-00000000-333333333333-|
a-3~--0~--1~--33333333333-00000000-111111111111-|
d-----0~------------------00000000--------------|

Lead Guitar during final chorus
e-13-12-13-12-10-12-10-------|
b----------------------13-13-|
g----------------------------|
d----------------------------|
a----------------------------|
d----------------------------|

end on
e-----
b-----
g-----
d-3~--
a-3~--
d-3~--
comments
print report bad tab
I want to post or [tab]
guest
You may want to rate the tab now too:
select rating
Please do not post tabs as comments. Select "correction" instead!