Oops, an error
Loading. Please wait.

Crimson And Clover Tab

1,298 views 3 this week
no commentswrite comment
1 2 3 4 5
please rate
add to favorites
launch autoscroll
font size
0
reset
how to read this tab
guitar tuner
Autoscroll
slow
fast
+/-
esc
set tempo
stop
Help us to improve Ultimate-Guitar.com Take our survey!
×
Author
Difficulty
novice
Hello My name is JORDAN and this song is simple once you get the rythem.
now heres the song.

Jimmy Eat World
Crimson and Clovers

Guitar 1(EADGBe)
Guitar 2(EADGBe)

Intro

G1
|-------------------------------------------------------------------|
|-------------------------------------------------------------------|
|-------------------------------------------------------------------|
|-------------------------------------------------------------------|
|-------------------------------------------------------------------|
|-------------------------------------------------------------------|

G2
|-------------------------------------------------------------------|
|-------------------------------------------------------------------|
|-------------------------------------------------------------------|
|-7---7---7---7-7-7-7-7---7---7-7-7---7---7---7-7-7-7-7---7---7-7|
|-7---7---7---7-7-7-7-7---7---7-7-7---7---7---7-7-7-7-7---7---7-7|
|-5---5---5---5-5-5-5-5---5---5-5-5---5---5---5-5-5-5-5---5---5-5|

G1
|----------------------------------------------------------------|
|-3---3---3---3-3-3-3-3---3---3-3-3---3---3---3-3-3-3-3---3---3-3|
|-2---2---2---2-2-2-2-2---2---2-2-2---2---2---2-2-2-2-2---2---2-2|
|-0---0---0---0-0-0-0-0---0---0-0-0---0---0---0-0-0-0-0---0---0-0|
|----------------------------------------------------------------|
|----------------------------------------------------------------|

G2
|----------------------------------------------------------------|
|----------------------------------------------------------------|
|----------------------------------------------------------------|
|-7---7---7---7-7-7-7-7---7---7-7-7---7---7---7-7-7-7-7---7---7-7|
|-7---7---7---7-7-7-7-7---7---7-7-7---7---7---7-7-7-7-7---7---7-7|
|-5---5---5---5-5-5-5-5---5---5-5-5---5---5---5-5-5-5-5---5---5-5|

Both guitars
|----------------------------------------------------------------|
|----------------------------------------------------------------|
|----------------------------------------------------------------|
|-7---7---7---7-7-7-7-7---7---7-7-7---7---7---7-7-7-7-7---7---7-7|
|-7---7---7---7-7-7-7-7---7---7-7-7---7---7---7-7-7-7-7---7---7-7|
|-5---5---5---5-5-5-5-5---5---5-5-5---5---5---5-5-5-5-5---5---5-5|

|----------------------------------------------------------------|
|----------------------------------------------------------------|
|----------------------------------------------------------------|
|-4---4---4---4-4-4-4-4---4---4-4-4---4---4---4-4-4-4-4---4---4-4|
|-4---4---4---4-4-4-4-4---4---4-4-4---4---4---4-4-4-4-4---4---4-4|
|-2---2---2---2-2-2-2-2---2---2-2-2---2---2---2-2-2-2-2---2---2-2|


|----------------------------------------------------------------|
|----------------------------------------------------------------|
|----------------------------------------------------------------|
|-7---7---7---7-7-7-7-7---7---7-7-7---7---7---7-7-7-7-7---7---7-7|
|-7---7---7---7-7-7-7-7---7---7-7-7---7---7---7-7-7-7-7---7---7-7|
|-5---5---5---5-5-5-5-5---5---5-5-5---5---5---5-5-5-5-5---5---5-5|

|----------------------------------------------------------------|
|----------------------------------------------------------------|
|----------------------------------------------------------------|
|-4---4---4---4-4-4-4-4---4---4-4-4---4---4---4-4-4-4-4---4---4-4|
|-4---4---4---4-4-4-4-4---4---4-4-4---4---4---4-4-4-4-4---4---4-4|
|-2---2---2---2-2-2-2-2---2---2-2-2---2---2---2-2-2-2-2---2---2-2|

|----------------------------------------------------------------|
|----------------------------------------------------------------|
|----------------------------------------------------------------|
|-7---7---7---7-7-7-7-7---7---7-7-7---7---7---7-7-7-7-7---7---7-7|
|-7---7---7---7-7-7-7-7---7---7-7-7---7---7---7-7-7-7-7---7---7-7|
|-5---5---5---5-5-5-5-5---5---5-5-5---5---5---5-5-5-5-5---5---5-5|

|----------------------------------------------------------------|
|----------------------------------------------------------------|
|----------------------------------------------------------------|
|-4---4---4---4-4-4-4-4---4---4-4-4---4---4---4-4-4-4-4---4---4-4|
|-4---4---4---4-4-4-4-4---4---4-4-4---4---4---4-4-4-4-4---4---4-4|
|-2---2---2---2-2-2-2-2---2---2-2-2---2---2---2-2-2-2-2---2---2-2|

|----------------------------------------------------------------|
|----------------------------------------------------------------|
|----------------------------------------------------------------|
|-7---7---7---7-7-7-7-7---7---7-7-7---7---7---7-7-7-7-7---7---7-7|
|-7---7---7---7-7-7-7-7---7---7-7-7---7---7---7-7-7-7-7---7---7-7|
|-5---5---5---5-5-5-5-5---5---5-5-5---5---5---5-5-5-5-5---5---5-5|

|----------------------------------------------------------------|
|----------------------------------------------------------------|
|----------------------------------------------------------------|
|-4---4---4---4-4-4-4-4---4---4-4-4---4---4---4-4-4-4-4---4---4-4|
|-4---4---4---4-4-4-4-4---4---4-4-4---4---4---4-4-4-4-4---4---4-4|
|-2---2---2---2-2-2-2-2---2---2-2-2---2---2---2-2-2-2-2---2---2-2|

|-----------------------------------------------------------------|
|-----------------------------------------------------------------|
|-----------------------------------------------------------------|
|-----------------------------------------------------------------|
|-2-2---2-2-2---2-4-4---4-4-4---4-7-7---7-7-7---7-7-7---7-7-7---7-|
|-0-0---0-0-0---0-2-2---2-2-2---2-5-5---5-5-5---5-5-5---5-5-5---5-|
  * *   * * *   * * *   * * *   * * *   * * *   * * *   * * *   *

|-----------------------------------------------------------------|
|-----------------------------------------------------------------|
|-----------------------------------------------------------------|
|-----------------------------------------------------------------|
|-2-2---2-2-2---2-4-4---4-4-4---4-7-7---7-7-7---7-7-7---7-7-7---7-|
|-0-0---0-0-0---0-2-2---2-2-2---2-5-5---5-5-5---5-5-5---5-5-5---5-|
  * *   * * *   * * *   * * *   * * *   * * *   * * *   * * *   *

|-----------------------------------------------------------------|
|-----------------------------------------------------------------|
|-----------------------------------------------------------------|
|-----------------------------------------------------------------|
|-2-2---2-2-2---2-4-4---4-4-4---4-7-7---7-4-4---4-2-2---2-2-2---2-|
|-0-0---0-0-0---0-2-2---2-2-2---2-5-5---5-2-2---2-0-0---0-0-0---0-|
  * *   * * *   * * *   * * *   * * *   * * *   * * *   * * *   *

|---------------------------------|
|---------------------------------|
|---------------------------------|
|---------------------------------|
|-2-2---2-2-2---2-4-4---4-4-4---4-|
|-0-0---0-0-0---0-2-2---2-2-2---2-|
  * *   * * *   * * *   * * *   *    

G1
|--------------------------------------------------------------------------|
|---------------------------------3---3---3---3-3-3-3-3---3---3-3----------|
|---------------------------------2---2---2---2-2-2-2-2---2---2-2----------|
|---------------------------------0---0---0---0-0-0-0-0---0---0-0----------|
|--------------------------------------------------------------------------|
|--------------------------------------------------------------------------|

G2
|-----------------------------------------------------------------|
|-----------------------------------------------------------------|
|-----------------------------------------------------------------|
|-7---7---7---7-7-7-7-7---7---7-7-7---7---7---7-7-7-7-7---7---7-7-|
|-7---7---7---7-7-7-7-7---7---7-7-7---7---7---7-7-7-7-7---7---7-7-|
|-5---5---5---5-5-5-5-5---5---5-5-5---5---5---5-5-5-5-5---5---5-5-|

Both guitars
|----------------------------------------------------------------|
|----------------------------------------------------------------|
|----------------------------------------------------------------|
|-7---7---7---7-7-7-7-7---7---7-7-7---7---7---7-7-7-7-7---7---7-7|
|-7---7---7---7-7-7-7-7---7---7-7-7---7---7---7-7-7-7-7---7---7-7|
|-5---5---5---5-5-5-5-5---5---5-5-5---5---5---5-5-5-5-5---5---5-5|

|----------------------------------------------------------------|
|----------------------------------------------------------------|
|----------------------------------------------------------------|
|-4---4---4---4-4-4-4-4---4---4-4-4---4---4---4-4-4-4-4---4---4-4|
|-4---4---4---4-4-4-4-4---4---4-4-4---4---4---4-4-4-4-4---4---4-4|
|-2---2---2---2-2-2-2-2---2---2-2-2---2---2---2-2-2-2-2---2---2-2|


|----------------------------------------------------------------|
|----------------------------------------------------------------|
|----------------------------------------------------------------|
|-7---7---7---7-7-7-7-7---7---7-7-7---7---7---7-7-7-7-7---7---7-7|
|-7---7---7---7-7-7-7-7---7---7-7-7---7---7---7-7-7-7-7---7---7-7|
|-5---5---5---5-5-5-5-5---5---5-5-5---5---5---5-5-5-5-5---5---5-5|

|----------------------------------------------------------------|
|----------------------------------------------------------------|
|----------------------------------------------------------------|
|-4---4---4---4-4-4-4-4---4---4-4-4---4---4---4-4-4-4-4---4---4-4|
|-4---4---4---4-4-4-4-4---4---4-4-4---4---4---4-4-4-4-4---4---4-4|
|-2---2---2---2-2-2-2-2---2---2-2-2---2---2---2-2-2-2-2---2---2-2|

|----------------------------------------------------------------|
|----------------------------------------------------------------|
|----------------------------------------------------------------|
|-7---7---7---7-7-7-7-7---7---7-7-7---7---7---7-7-7-7-7---7---7-7|
|-7---7---7---7-7-7-7-7---7---7-7-7---7---7---7-7-7-7-7---7---7-7|
|-5---5---5---5-5-5-5-5---5---5-5-5---5---5---5-5-5-5-5---5---5-5|

|----------------------------------------------------------------|
|----------------------------------------------------------------|
|----------------------------------------------------------------|
|-4---4---4---4-4-4-4-4---4---4-4-4---4---4---4-4-4-4-4---4---4-4|
|-4---4---4---4-4-4-4-4---4---4-4-4---4---4---4-4-4-4-4---4---4-4|
|-2---2---2---2-2-2-2-2---2---2-2-2---2---2---2-2-2-2-2---2---2-2|

|----------------------------------------------------------------|
|----------------------------------------------------------------|
|----------------------------------------------------------------|
|-7---7---7---7-7-7-7-7---7---7-7-7---7---7---7-7-7-7-7---7---7-7|
|-7---7---7---7-7-7-7-7---7---7-7-7---7---7---7-7-7-7-7---7---7-7|
|-5---5---5---5-5-5-5-5---5---5-5-5---5---5---5-5-5-5-5---5---5-5|

|----------------------------------------------------------------|
|----------------------------------------------------------------|
|----------------------------------------------------------------|
|-4---4---4---4-4-4-4-4---4---4-4-4---4---4---4-4-4-4-4---4---4-4|
|-4---4---4---4-4-4-4-4---4---4-4-4---4---4---4-4-4-4-4---4---4-4|
|-2---2---2---2-2-2-2-2---2---2-2-2---2---2---2-2-2-2-2---2---2-2|

|-----------------------------------------------------------------|
|-----------------------------------------------------------------|
|-----------------------------------------------------------------|
|-----------------------------------------------------------------|
|-2-2---2-2-2---2-4-4---4-4-4---4-7-7---7-7-7---7-7-7---7-7-7---7-|
|-0-0---0-0-0---0-2-2---2-2-2---2-5-5---5-5-5---5-5-5---5-5-5---5-|
  * *   * * *   * * *   * * *   * * *   * * *   * * *   * * *   *

|-----------------------------------------------------------------|
|-----------------------------------------------------------------|
|-----------------------------------------------------------------|
|-----------------------------------------------------------------|
|-2-2---2-2-2---2-4-4---4-4-4---4-7-7---7-7-7---7-7-7---7-7-7---7-|
|-0-0---0-0-0---0-2-2---2-2-2---2-5-5---5-5-5---5-5-5---5-5-5---5-|
  * *   * * *   * * *   * * *   * * *   * * *   * * *   * * *   *

|-----------------------------------------------------------------|
|-----------------------------------------------------------------|
|-----------------------------------------------------------------|
|-----------------------------------------------------------------|
|-2-2---2-2-2---2-4-4---4-4-4---4-7-7---7-4-4---4-2-2---2-2-2---2-|
|-0-0---0-0-0---0-2-2---2-2-2---2-5-5---5-2-2---2-0-0---0-0-0---0-|
  * *   * * *   * * *   * * *   * * *   * * *   * * *   * * *   *

|---------------------------------|
|---------------------------------|
|---------------------------------|
|---------------------------------|
|-2-2---2-2-2---2-4-4---4-4-4---4-|
|-0-0---0-0-0---0-2-2---2-2-2---2-|
  * *   * * *   * * *   * * *   *    

G1
|--------------------------------------------------------------------------|
|---------------------------------3---3---3---3-3-3-3-3---3---3-3----------|
|---------------------------------2---2---2---2-2-2-2-2---2---2-2----------|
|---------------------------------0---0---0---0-0-0-0-0---0---0-0----------|
|--------------------------------------------------------------------------|
|--------------------------------------------------------------------------|

G2
|-----------------------------------------------------------------|
|-----------------------------------------------------------------|
|-----------------------------------------------------------------|
|-7---7---7---7-7-7-7-7---7---7-7-7---7---7---7-7-7-7-7---7---7-7-|
|-7---7---7---7-7-7-7-7---7---7-7-7---7---7---7-7-7-7-7---7---7-7-|
|-5---5---5---5-5-5-5-5---5---5-5-5---5---5---5-5-5-5-5---5---5-5-|

Both Guitars
|-----------------------------------------------------------------|
|-----------------------------------------------------------------|
|-----------------------------------------------------------------|
|-7---7---7---7-7-7-7-7---7---7-7-2---2---2---2-2-2-2-2---2---2-2-|
|-7---7---7---7-7-7-7-7---7---7-7-2---2---2---2-2-2-2-2---2---2-2-|
|-5---5---5---5-5-5-5-5---5---5-5-0---0---0---0-0-0-0-0---0---0-0-|

|-----------------------------------------------------------------|
|-----------------------------------------------------------------|
|-----------------------------------------------------------------|
|-4---4---4---4-4-4-4-4---4---4-4-7---7---7---7-7-7-7-7---7---7-7-|
|-4---4---4---4-4-4-4-4---4---4-4-7---7---7---7-7-7-7-7---7---7-7-|
|-2---2---2---2-2-2-2-2---2---2-2-5---5---5---5-5-5-5-5---5---5-5-|

|-----------------------------------------------------------------|
|-----------------------------------------------------------------|
|-----------------------------------------------------------------|
|-7---7---7---7-7-7-7-7---7---7-7-2---2---2---2-2-2-2-2---2---2-2-|
|-7---7---7---7-7-7-7-7---7---7-7-2---2---2---2-2-2-2-2---2---2-2-|
|-5---5---5---5-5-5-5-5---5---5-5-0---0---0---0-0-0-0-0---0---0-0-|

|-----------------------------------------------------------------|
|-----------------------------------------------------------------|
|-----------------------------------------------------------------|
|-4---4---4---4-4-4-4-4---4---4-4-7---7---7---7-7-7-7-7---7---7-7-|
|-4---4---4---4-4-4-4-4---4---4-4-7---7---7---7-7-7-7-7---7---7-7-|
|-2---2---2---2-2-2-2-2---2---2-2-5---5---5---5-5-5-5-5---5---5-5-|

G1
|-----------------------------------------------------------------|
|-3---3---3---3-3-3-3-3---3---3-3-3---3---3---3-3-3-3-3---3---3-3-|
|-2---2---2---2-2-2-2-2---2---2-2-2---2---2---2-2-2-2-2---2---2-2-|
|-0---0---0---0-0-0-0-0---0---0-0-0---0---0---0-0-0-0-0---0---0-0-|
|-----------------------------------------------------------------|
|-----------------------------------------------------------------|

G2
|-----------------------------------------------------------------|
|-----------------------------------------------------------------|
|-----------------------------------------------------------------|
|-7---7---7---7-7-7-7-7---7---7-7-2---2---2---2-2-2-2-2---2---2-2-|
|-7---7---7---7-7-7-7-7---7---7-7-2---2---2---2-2-2-2-2---2---2-2-|
|-5---5---5---5-5-5-5-5---5---5-5-0---0---0---0-0-0-0-0---0---0-0-|

G1
|-----------------------------------------------------------------|
|-3---3---3---3-3-3-3-3---3---3-3-3---3---3---3-3-3-3-3---3---3-3-|
|-2---2---2---2-2-2-2-2---2---2-2-2---2---2---2-2-2-2-2---2---2-2-|
|-0---0---0---0-0-0-0-0---0---0-0-0---0---0---0-0-0-0-0---0---0-0-|
|-----------------------------------------------------------------|
|-----------------------------------------------------------------|

G2
|-----------------------------------------------------------------|
|-----------------------------------------------------------------|
|-----------------------------------------------------------------|
|-4---4---4---4-4-4-4-4---4---4-4-7---7---7---7-7-7-7-7---7---7-7-|
|-4---4---4---4-4-4-4-4---4---4-4-7---7---7---7-7-7-7-7---7---7-7-|
|-2---2---2---2-2-2-2-2---2---2-2-5---5---5---5-5-5-5-5---5---5-5-|

G1
|-----------------------------------------------------------------|
|-3---3---3---3-3-3-3-3---3---3-3-3---3---3---3-3-3-3-3---3---3-3-|
|-2---2---2---2-2-2-2-2---2---2-2-2---2---2---2-2-2-2-2---2---2-2-|
|-0---0---0---0-0-0-0-0---0---0-0-0---0---0---0-0-0-0-0---0---0-0-|
|-----------------------------------------------------------------|
|-----------------------------------------------------------------|

G2
|-----------------------------------------------------------------|
|-----------------------------------------------------------------|
|-----------------------------------------------------------------|
|-7---7---7---7-7-7-7-7---7---7-7-2---2---2---2-2-2-2-2---2---2-2-|
|-7---7---7---7-7-7-7-7---7---7-7-2---2---2---2-2-2-2-2---2---2-2-|
|-5---5---5---5-5-5-5-5---5---5-5-0---0---0---0-0-0-0-0---0---0-0-|

G1
|-----------------------------------------------------------------|
|-3---3---3---3-3-3-3-3---3---3-3-3---3---3---3-3-3-3-3---3---3-3-|
|-2---2---2---2-2-2-2-2---2---2-2-2---2---2---2-2-2-2-2---2---2-2-|
|-0---0---0---0-0-0-0-0---0---0-0-0---0---0---0-0-0-0-0---0---0-0-|
|-----------------------------------------------------------------|
|-----------------------------------------------------------------|

G2
|-----------------------------------------------------------------|
|-----------------------------------------------------------------|
|-----------------------------------------------------------------|
|-4---4---4---4-4-4-4-4---4---4-4-7---7---7---7-7-7-7-7---7---7-7-|
|-4---4---4---4-4-4-4-4---4---4-4-7---7---7---7-7-7-7-7---7---7-7-|
|-2---2---2---2-2-2-2-2---2---2-2-5---5---5---5-5-5-5-5---5---5-5-|

Both Guitars
|-----------------------------------------------------------------|
|-----------------------------------------------------------------|
|-----------------------------------------------------------------|
|-2---2---2---2-2-4---4---4---4-4-7---7---7---7-7-7-7-7---7---7-7-|
|-2---2---2---2-2-4---4---4---4-4-7---7---7---7-7-7-7-7---7---7-7-|
|-0---0---0---0-0-2---2---2---2-2-5---5---5---5-5-5-5-5---5---5-5-|

|-----------------------------------------------------------------|
|-----------------------------------------------------------------|
|-----------------------------------------------------------------|
|-2---2---2---2-2-4---4---4---4-4-7---7---7---7-7-7-7-7---7---7-7-|
|-2---2---2---2-2-4---4---4---4-4-7---7---7---7-7-7-7-7---7---7-7-|
|-0---0---0---0-0-2---2---2---2-2-5---5---5---5-5-5-5-5---5---5-5-|

|-----------------------------------------------------------------|
|-----------------------------------------------------------------|
|-----------------------------------------------------------------|
|-2---2---2---2-2-4---4---4---4-4-7---4---2---2---2---2-2-2-2-2---|
|-2---2---2---2-2-4---4---4---4-4-7---4---2---2---2---2-2-2-2-2---|
|-0---0---0---0-0-2---2---2---2-2-5---2---0---0---0---0-0-0-0-0---|

|-----------------------------------------------------|
|-----------------------------------------------------|
|-----------------------------------------------------|
|-2-2-4---4---4---4-4-7---7---7---7-7-7-7-7---7---7-7-|
|-2-2-4---4---4---4-4-7---7---7---7-7-7-7-7---7---7-7-|
|-0-0-2---2---2---2-2-5---5---5---5-5-5-5-5---5---5-5-|

|-----------------------------------------------------------------|
|-----------------------------------------------------------------|
|-----------------------------------------------------------------|
|-2---2---2---2-2-4---4---4---4-4-7---7---7---7-7-7-7-7---7---7-7-|
|-2---2---2---2-2-4---4---4---4-4-7---7---7---7-7-7-7-7---7---7-7-|
|-0---0---0---0-0-2---2---2---2-2-5---5---5---5-5-5-5-5---5---5-5-|

|-----------------------------------------------------------------|
|-----------------------------------------------------------------|
|-----------------------------------------------------------------|
|-2---2---2---2-2-4---4---4---4-4-7---4---2---2---2---2-2-2-2-2---|
|-2---2---2---2-2-4---4---4---4-4-7---4---2---2---2---2-2-2-2-2---|
|-0---0---0---0-0-2---2---2---2-2-5---2---0---0---0---0-0-0-0-0---|

|-----------------------------------------------------|
|-----------------------------------------------------|
|-----------------------------------------------------|
|-2-2-4---4---4---4-4-7---7---7---7-7-7-7-7---7---7-7-|
|-2-2-4---4---4---4-4-7---7---7---7-7-7-7-7---7---7-7-|
|-0-0-2---2---2---2-2-5---5---5---5-5-5-5-5---5---5-5-|

|---------------------------------|
|---------------------------------|
|---------------------------------|
|-7---7---7---7-7-7-7-7---7---7-7-|
|-7---7---7---7-7-7-7-7---7---7-7-|
|-5---5---5---5-5-5-5-5---5---5-5-|

G1
|-----------------------------------------------------------------|
|-3---3---3---3-3-3-3-3---3---3-3-3---3---3---3-3-3-3-3---3---3-3-|
|-2---2---2---2-2-2-2-2---2---2-2-2---2---2---2-2-2-2-2---2---2-2-|
|-0---0---0---0-0-0-0-0---0---0-0-0---0---0---0-0-0-0-0---0---0-0-|
|-----------------------------------------------------------------|
|-----------------------------------------------------------------|

G2
|-----------------------------------------------------------------|
|-----------------------------------------------------------------|
|-----------------------------------------------------------------|
|-7---7---7---7-7-7-7-7---7---7-7-7---7---7---7-7-7-7-7---7---7-7-|
|-7---7---7---7-7-7-7-7---7---7-7-7---7---7---7-7-7-7-7---7---7-7-|
|-5---5---5---5-5-5-5-5---5---5-5-5---5---5---5-5-5-5-5---5---5-5-|

G1
|---------|
|-3--3---3|
|-2--2---2|
|-0--0---0|
|---------|
|---------|

G2
|---------|
|---------|
|---------|
|-7--7---7|
|-7--7---7|
|-5--5---5|

Ledgend
* = palm mute

Thats it i hope you keep playing 

ROCK ON!!!!!
Suggest correction
Give kudos to tab author, rate the tab!
1 2 3 4 5
comments
print report bad tab
guest
You may want to rate the tab now too:
select rating
Please do not post tabs as comments. Select "correction" instead!