Oops, an error
Loading. Please wait.

Crush Tab

version 1
version 1

Whole song

Interactive

3,417 views 9 this week
1 commentread comment
1 2 3 4 5
x 4
add to favorites
launch autoscroll
font size
0
reset
how to read this tab
guitar tuner
Autoscroll
slow
fast
+/-
esc
set tempo
stop
Help us to improve Ultimate-Guitar.com Take our survey!
×
Author
Difficulty
Tuning
novice
D A D G B E
There's a lot of repetition but I'll just tab the whole thing out cause it's simpler. Enjoy!

|--------|-----------------------------------|----------------------------------|
|--------|-----------------------------------|----------------------------------|
|--------|-----------------------------------|----------------------------------|
|-0------|-5-5-555-5-55-5-5-5-5-555-5-55-5-5-|-00000000000000000000000000000000-|
|-0------|-5-5-555-5-55-5-5-5-5-555-5-55-5-5-|-00000000000000000000000000000000-|
|-0------|-5-5-555-5-55-5-5-5-5-555-5-55-5-5-|-00000000000000000000000000000000-|
                                             PM - - - - - - - - - - - - - - -

|-----------------------------------| |-------------(0-0-0-0)-|
|-----------------------------------| |-----------------------|
|-----------------------------------| |-----------------------|x3
|-5-5-555-5-55-5-5-5-5-555-5-55-5-5-| |-4---5---0-------------| 
|-5-5-555-5-55-5-5-5-5-555-5-55-5-5-| |-4---5---0-------------|
|-5-5-555-5-55-5-5-5-5-555-5-55-5-5-| |-4---5---0-------------|

|---------------------------------|----------------------------------|
|---------------------------------|----------------------------------|
|---------------------------------|----------------------------------|
|-4---5---0---7--5555555555555555-|-00000000000000000000000000000000-|
|-4---5---0---7--5555555555555555-|-00000000000000000000000000000000-|
|-4---5---0---7--5555555555555555-|-00000000000000000000000000000000-|
                                 PM - - - - - - - - - - - - - - - - -

|-----------------------------------|------------------xxxxxxxxxxxxxxxx-|
|-----------------------------------|------------------xxxxxxxxxxxxxxxx-|
|-----------------------------------|------------------xxxxxxxxxxxxxxxx-|
|-5-5-555-5-55-5-5-5-5-555-5-55-5-5-|-0000000000000000-xxxxxxxxxxxxxxxx-|
|-5-5-555-5-55-5-5-5-5-555-5-55-5-5-|-0000000000000000-xxxxxxxxxxxxxxxx-|
|-5-5-555-5-55-5-5-5-5-555-5-55-5-5-|-0000000000000000-xxxxxxxxxxxxxxxx-|
                                   PM - - - - - - - - - - - - - - - - - -

|-----------------------------------||------------(0-0-0-0)-|
|-----------------------------------||----------------------|
|-----------------------------------||----------------------|
|-5-5-555-5-55-5-5-5-5-555-5-55-5-5-||-4---5---0------------|x3
|-5-5-555-5-55-5-5-5-5-555-5-55-5-5-||-4---5---0------------|
|-5-5-555-5-55-5-5-5-5-555-5-55-5-5-||-4---5---0------------|

etc. More to come soon!
Suggest correction
comments
print report bad tab
1 comment total.
0 reply
phaynes1 10 Jun 02, 2015 02:56 PM

lots of parts missing here

guest
You may want to rate the tab now too:
select rating
Wanna post a correction for this tab? Suggest correction