Oops, an error
Loading. Please wait.

Disintegration tab

version 2
version 2

Whole song

1,242 views 3 this week
no commentswrite comment
1 2 3 4 5
3 more votes to show rating
add to favorites
×
Save as Personal and add changes to this tab that will be seen only by you. Learn more ›
×
You can save this tab as Personal to edit and correct it or add notes. All changes will be seen only by you. Learn more »
launch autoscroll
font size
0
reset
how to read this tab
guitar tuner
edit
Autoscroll
slow
fast
+/-
esc
set tempo
stop
Song: Disintegration
Band: Jimmy Eat World
Album: Stay On My Side Tonight (ep)


This is very roughly arranged, it was a pretty difficult song to tab
as with any live version/video they'll play pretty different parts...
I haven't tried to be precise with the note count. Some notes may be off but still 
in tune i suppose.

I welcome suggestions/corrections and even a new tab, just don't
butcher mine and call it yours

Dropped C# - (drop every string a semi-tone, and then drop the E string, 
now Eb, down a tone)


Guitar 1: Jim Adkins guitar
Guitar 2: Tom Lintons guitar

Guitar 1: 
Eb|---------------------------------------|
Bb|---------------------------------------|
F#|---------------------------------------|
C#|---------------------------------------|    x 4 intro
G#|---------------------------------------|
C#|--7-7~~\2--/4-4-4-4-4-4-4-4-4-4-4-4-4--|

Starts singing

Guitar 1: (J-A) (includes all parts played solely on the C# here)
Eb|---------------------------------------|
Bb|---------------------------------------|
F#|---------------------------------------|
C#|---------------------------------------|   
G#|---------------------------------------|
C#|--7-7~~\2--/4-4-4-4-4-4-4-4-4-4-4-4-4--|
                   I've spent my last nights..... (repeat)

Eb|---------------------------------------|
Bb|---------------------------------------|
F#|---------------------------------------|
C#|---------------------------------------|
G#|---------------------------------------|
C#|--7-7-7-\-2-2-2-2-2-2-2-2-2-2-2-2-2-2--|
     ...Holding out...

Guitar 2: (T-A) fades in here

Eb|---------------------------------------|
Bb|---------------------------------------|
F#|---------------------------------------|
C#|---------------------------------------|
G#|---------------------------------------|
C#|--7-7~~\-2-/4-4-4-4-4-4-4-4-4-4-4-4-4--|

Eb|-----------------------------------------------------------------------|
Bb|-----------------------------------------------------------------------|
F#|-----------------------------------------------------------------------|
C#|-----------------------------------------------------------------------|
G#|-----------------------------------------------------------------------|
C#|--12-12-12-12-12-12-12-12\11-11-11-11-11-11-11-11-\-9-9-9-9-9-9-9-9-9--|
          An answer comes...

Guitar 2: (T-B) enters at An answer comes...


Eb|---------------------------------------|
Bb|---------------------------------------|
F#|---------------------------------------|
C#|---------------------------------------|
G#|---------------------------------------|
C#|--9-9-9-\-7-7-7-7-7-7-7-7-7-7-7-7-7-7--|


Guitar 2: (T-A)
Eb|---------9-----------9-------9------------7-----------7-------7--------|
Bb|---7---7---7---7---7---7---7---7----7---7---7---7---7---7---7---7------|
F#|-9---9-------9---9-------9--------9---9-------9---9-------9------------|
C#|-----------------------------------------------------------------------|
G#|-----------------------------------------------------------------------|
C#|-----------------------------------------------------------------------|
                                    
Eb|---------9-----------9-------9-----------9-----------9-------9---------|
Bb|---7---7---7---7---7---7---7---7---7---7---7---7---7---7---7---7---7---|
F#|-9---9-------9---9-------9-------9---9-------9---9-------9-------9-----|
C#|-----------------------------------------------------------------------|
G#|-----------------------------------------------------------------------|
C#|-----------------------------------------------------------------------|


Guitar 2: (T-B)
Eb|--------------------------------------------------------------------------------|
Bb|--------------------------------------------------------------------------------|
F#|-14-14-14-14-14-14-14-14-14-14-14-14-14-14-14-14-\-13~~---------13-/-14-\-13~~--|
C#|--x--x--x--x--x--x--x--x--x--x--x--x--x--x--x--x----x------------x----x----x----|
G#|-12-12-12-12-12-12-12-12-12-12-12-12-12-12-12-12-\-11~~---------11-/-12-\-11~~--|
C#|--------------------------------------------------------------------------------|

Eb|--------------------------------------------------------------------------------|
Bb|--------------------------------------------------------------------------------|
F#|--13-13-/-14-\-11~~-------------------------------------------------------------|
C#|---x--x----x----x---------------------------------------------------------------|
G#|--11-11-/-12-\--9~~-------------------------------------------------------------|
C#|--------------------------------------------------------------------------------|



Chorus

Guitar 1: (J-B)
Eb|--9-10-9---------------------------------------------------|
Bb|---------------10-12~~-----10----10---10---7---------------|
F#|----------11-9-----------9-----7----6----4-----------------|
C#|-----------------------------------------------------------|
G#|-----------------------------------------------------------|
C#|-----------------------------------------------------------|
I wonder why I'm so...

Eb|--9-10-9---------------------------------------------------|
Bb|---------------10-12~~-----10-12-10---12-10----------------|
F#|----------11-9-----------9----------9-------11-------------|
C#|-----------------------------------------------------------|
G#|-----------------------------------------------------------|
C#|-----------------------------------------------------------|
...When we kiss

Post-chorus

For this part return to Guitar 2: (T-A)

Guitar 1(J-A) comes in soon after

2nd verse the same as the 1st with (T-A) played all the way through


Then enter the chorus

At the end of the chorus, go into these next two parts for the Post-chorus

Guitar 2: (T-C)
Eb|-------------------------------------------------------------------------|
Bb|-7-9-7-9-10-9-7--9-7-9-7-9-10-9-7--9-7-9-7-9-10-9-7-9--7-9-7-9-10-9-7-9--|
F#|-------------------------------------------------------------------------|
C#|-------------------------------------------------------------------------|
G#|-------------------------------------------------------------------------|
C#|-------------------------------------------------------------------------|

Guitar 1: (J-C)
Eb|-9-7-------------7-9-7-------------7-9-7-------------7-9-7-------------7-|
Bb|-----10-9-7-9-10-------10-9-7-9-10-------10-9-7-9-10-------10-9-7-9-10---|
F#|-------------------------------------------------------------------------|
C#|-------------------------------------------------------------------------|
G#|-------------------------------------------------------------------------|
C#|-------------------------------------------------------------------------|

This is pretty much it, for the final 3 minutes:

Guitar 1: (J-D)                                                                   
Eb|--------------------------------------------------------------------------------|
Bb|--------------------------------------------------------------------------------|
F#|-16-16-16-16-16-16-16-16-16-16-16-16-16-16-16-16-\-14-14-14-14-14-14-14-14-\----|
C#|--x--x--x--x--x--x--x--x--x--x--x--x--x--x--x--x----x--x--x--x--x--x--x--x------|
G#|-14-14-14-14-14-14-14-14-14-14-14-14-14-14-14-14-\-12-12-12-12-12-12-12-12-\----|
C#|--------------------------------------------------------------------------------|
                                                                      
Eb|--------------------------------------------------------------------------------|
Bb|--------------------------------------------------------------------------------|
F#|-\-13-13-13-13-13-13-13-13-\-11-11-11-11-11-11-11-11-11-11-11-11-11-11-11-11----|
C#|----x--x--x--x--x--x--x--x----x--x--x--x--x--x--x--x--x--x--x--x--x--x--x--x----|
G#|-\-11-11-11-11-11-11-11-11-\--9--9--9--9--9--9--9--9--9--9--9--9--9--9--9--9----|
C#|--------------------------------------------------------------------------------|

Guitar 1 changes to this at about 5.30

Eb|--------------------------------------------------------------------------------|
Bb|--------------------------------------------------------------------------------|
F#|-16-16-16-16-16-16-16-16-16-16-16-16-16-16-16-16-\-13-13-13-13-13-13-13-13------|
C#|--x--x--x--x--x--x--x--x--x--x--x--x--x--x--x--x----x--x--x--x--x--x--x--x------|
G#|-14-14-14-14-14-14-14-14-14-14-14-14-14-14-14-14-\-11-11-11-11-11-11-11-11------|
C#|--------------------------------------------------------------------------------|

Eb|--------------------------------------------------------------------------------|
Bb|--------------------------------------------------------------------------------|
F#|-13-13-13-13-13-13-13-13-\-14-14-14-14-14-14-14-14-14-14-14-14-14-14-14-14------|
C#|--x--x--x--x--x--x--x--x----x--x--x--x--x--x--x--x--x--x--x--x--x--x--x--x------|
G#|-14-14-14-14-14-14-14-14-\-12-12-12-12-12-12-12-12-12-12-12-12-12-12-12-12------|
C#|--------------------------------------------------------------------------------|

Eb|------------------------------------------|
Bb|------------------------------------------|
F#|--13-13-/-14-\-11~~---13-13-/-14-\-11~~---|
C#|---x--x----x----x---------x----x----x-----|  
G#|--11-11-/-12-\--9~~---11-11-/-12-\--9~~---|
C#|------------------------------------------|


The song ends with Guitar 2: (T-C)

Lyrics: 
I've spent my last nights strung up and pulled tight,
Holding out sleeping proud.
An answer comes without a please.
Do what you want.

I wonder why I'm so caught off guard when we kiss.
I'd rather live my life in regret than do this.
What happened to the love we both knew, we both chased?
Hanging on a cigarette, you need me, you'll burn me
You'll burn me.

Hushed with a finger,
don't say you'll never when you might
Oh, just another time
This poison comes instruction free.
Do what you want, But I'm drinking.

I wonder why I'm so caught off guard when we kiss.
I'd rather live my life in regret than do this.
What happened to the love we both knew, we both chased?
Hanging on a cigarette, you need me, you'll burn me
You'll burn me.

Try to lie, better next time
Stay on my side tonight, ohhh ohh ohh...

I wonder why I'm so caught off guard when we kiss.
I'd rather live my life in regret than do this.
What happened to the love we both knew, we both chased?
Hanging on a cigarette, you need me, you'll burn me
You'll burn me.

            
            
Suggest correction
Creating personal tab
Creating personal tab
You can edit any tab online and save it as your Personal.

You can edit, replace or remove any tab part or add personal notes – all changes will be seen only by you.

Personal tabs can be accessed anytime from any device, even offline.
Learn more »
Give kudos to tab author, rate the tab!
1 2 3 4 5
comments
print report bad tab
guest
You may want to rate the tab now too:
select rating
Wanna post a correction for this tab? Suggest correction