Oops, an error
Loading. Please wait.

Drugs Or Me intro tab

version 1
version 1

Intro

Whole song

Interactive

173 views 3 this week
no commentswrite comment
1 2 3 4 5
3 more votes to show rating
add to favorites
×
Save as Personal and add changes to this tab that will be seen only by you. Learn more ›
×
You can save this tab as Personal to edit and correct it or add notes. All changes will be seen only by you. Learn more »
launch autoscroll
font size
0
reset
how to read this tab
guitar tuner
edit
Autoscroll
slow
fast
+/-
esc
set tempo
stop
Author
Difficulty
-------------------------------------------------------------------------------
                             Drugs Or Me - Jimmy Eat World
-------------------------------------------------------------------------------
Tabbed by: Fernando M.
E-mail: fmendez0404@gmail.com

Tuning: E Standard

  Kept looking for this song everywhere and I couldn't find it
 so I decided to tab it out myself, check it out and let me know what you all think!

e|----------------------------------------------------------------|
B|------------9----------9------------------9----------9----------|
G|--------10---------10---------10------10---------10---------10--|
D|----11---------11---------11------11---------11---------11------|
A|----------------------------------------------------------------|
E|----------------------------------------------------------------|

e|----------------------------------------------------------------|
B|------------9----------9------------------9----------9----------|
G|--------10---------10---------10------10---------10---------10--|
D|----10---------10---------10------10---------10---------10------|
A|----------------------------------------------------------------|
E|----------------------------------------------------------------|

e|-----------------------------------------------------------------------------------|
B|----------7--------7--------------7--------7---------------------------------------|
G|-------6--------6--------6-----6--------6--------6---------------------------------|
D|----8--------8--------8-----8--------8--------8------------------------------------|
A|-----------------------------------------------------------------------------------|
E|-----------------------------------------------------------------------------------|

e|------------------------------------------------------------------------------------|
B|----------6--------6--------4--------4--------4-------------------------------------|
G|-------6--------6--------6--------6--------6-----10---------------------------------|
D|----6--------6--------6--------6--------6-------------------------------------------|
A|------------------------------------------------------------------------------------|
E|------------------------------------------------------------------------------------|

    You could use this through the whole song. Just repeat. Thanks for checking out the tab!

            
            
Suggest correction
Creating personal tab
Creating personal tab
You can edit any tab online and save it as your Personal.

You can edit, replace or remove any tab part or add personal notes – all changes will be seen only by you.

Personal tabs can be accessed anytime from any device, even offline.
Learn more »
Give kudos to tab author, rate the tab!
1 2 3 4 5
comments
print report bad tab
guest
You may want to rate the tab now too:
select rating
Wanna post a correction for this tab? Suggest correction