Oops, an error
Loading. Please wait.

Feeling Lucky Bass Tab

version 1
version 1

Whole song

Interactive

734 views 1 this week
no commentswrite comment
1 2 3 4 5
please rate
add to favorites
launch autoscroll
font size
0
reset
guitar tuner
Tab Pro tools
  • play this tab
  • loop segment
  • change instrument
  • show fretboard
  • metronome
×
Best way to learn
"Feeling Lucky"
Autoscroll
slow
fast
+/-
esc
set tempo
stop
Contributor
Jimmy Eat World – Chase the light – feeling lucky

Intro

G|----------------------------------|
D|-9---9--99-9-9-9-9---9--99-9-9-9\-| 
A|----------------------------------|
D|----------------------------------|

Verse x2

G|----------------------------------|
D|----------------------------------| 
A|-2---2--22-2-2-2-2---2--22-4-4----|
D|-------------------------------4--|

G|----------------------------------|
D|----------------------------------| 
A|----------------------------------|
D|-6---6--66-6-6-6-6---6--66-6-6-4--|

G|----------------------------------|
D|----------------------------------| 
A|-2---2--22-2-2-2-2---2--22-4-4----|
D|-------------------------------4--|

G|----------------------------------|
D|----------------------------------| 
A|----------------------------------|
D|-6---6--66-6-6-6-6---6--66-6-6-4--|

G|----------------------------------|
D|----------------------------------| 
A|----------------------------------|
D|-2---2--22-2-2-2-2---2--22-2-2-4--|

G|----------------------------------|
D|----------------------------------| 
A|----------------------------------|
D|-6---6--66-6-6-6-6---6--66-6-6-4--|

G|----------------------------------|
D|----------------------------------| 
A|----------------------------------|
D|-2---2--22-2-2-2-4---4--44-4-4-4--|

G|----------------------------------|
D|----------------------------------| 
A|-2---2--22-2-2-2-2---2--22-2-2-2--|
D|----------------------------------|

Bridge (0:57)

G|----------------------------------|
D|----------------------------------| 
A|-----------------2222222222222222-|
D|-1111111122222222-----------------|

G|----------------------------------|
D|----------------------------------| 
A|----------------------------------|
D|-11111111222222224444444444444444-|

G|----------------------------------|
D|----------------------------------| 
A|-2---2--22-2-2-2-2---2--22-4-4----|
D|-------------------------------4--|

G|----------------------------------|
D|----------------------------------| 
A|----------------------------------|
D|-6---6--66-6-6-6-6---6--66-6-6-4--|

G|----------------------------------|
D|----------------------------------| 
A|-2---2--22-2-2-2-2---2--22-4-4----|
D|-------------------------------4--|

G|----------------------------------|
D|----------------------------------| 
A|----------------------------------|
D|-6---6--66-6-6-6-6---6--66-6-6-4--|

G|----------------------------------|
D|----------------------------------| 
A|----------------------------------|
D|-22222222222222226666666666666666-|

G|----------------------------------|
D|----------------------------------| 
A|-----------------2222222222222222-|
D|-2222222244444444-----------------|

Verse (1:38)

G|----------------------------------|
D|----------------------------------| 
A|-2---2--22-2-2-2-2---2--22-4-4----|
D|-------------------------------4--|

G|----------------------------------|
D|----------------------------------| 
A|----------------------------------|
D|-6---6--66-6-6-6-6---6--66-6-6-4--|

G|----------------------------------|
D|----------------------------------| 
A|-2---2--22-2-2-2-2---2--22-4-4----|
D|-------------------------------4--|

G|----------------------------------|
D|----------------------------------| 
A|----------------------------------|
D|-6---6--66-6-6-6-6---6--66-6-6-4--|

G|----------------------------------|
D|----------------------------------| 
A|----------------------------------|
D|-2---2--22-2-2-2-2---2--22-2-2-4--|

G|----------------------------------|
D|----------------------------------| 
A|----------------------------------|
D|-6---6--66-6-6-6-6---6--66-6-6-4--|

G|----------------------------------|
D|----------------------------------| 
A|----------------------------------|
D|-2---2--22-2-2-2-4---4--44-4-4-4--|

G|----------------------------------|
D|----------------------------------| 
A|-2---2--22-2-2-2-2---2--22-2-2-2--|
D|----------------------------------|

Ending (2:05)

G|----------------------------------|
D|----------------------------------| 
A|----------------------------------|
D|-2---2--22-2-2-2-4---4--44-4-4-4--|

G|----------------------------------|
D|----------------------------------| 
A|-2---2--22-2-2-2-2---2--22-2-2-2--|
D|----------------------------------|

G|----------------------------------|
D|----------------------------------| 
A|----------------------------------|
D|-2---2--22-2-2-2-4---4--44-4-4-4--|

G|---------------------|
D|---------------------| 
A|-2---2--22-2-----2~--|
D|-------------4-------|
comments
We did not receive enough feedback on this tab! Please rate:
print report bad tab
1 2 3 4 5
I want to post or [tab]
guest
You may want to rate the tab now too:
select rating
Please do not post tabs as comments. Select "correction" instead!