Oops, an error
Loading. Please wait.

Futures Bass Tab

version 1
version 1

Whole song

Interactive

2,409 views 3 this week
no commentswrite comment
1 2 3 4 5
please rate
add to favorites
launch autoscroll
font size
0
reset
guitar tuner
Tab Pro tools
  • play this tab
  • loop segment
  • change instrument
  • show fretboard
  • metronome
×
Best way to learn
"Futures"
Autoscroll
slow
fast
+/-
esc
set tempo
stop
Contributor
-------------------------------------------------------------------------------
			     FUTURES - Jimmy Eat World
-------------------------------------------------------------------------------

Tabbed By : dazz203
e-mail: dazcurran@hotmail.co.uk


Tuning: Drop D

structure:
-Intro
-Verse
-Chorus
-Verse
-Chorus
-Bridge
-Chorus
-Outro

Intro:

G|---------------------------------------------------------------------------|
D|---------------------------------------------------------------------------|
A|---------------------------------------------------------------------------|
D|-1-1-1-1-1-1-1-1--1-1-1-1-1-1-1-1--1-1-1-1-1-1-1-1--1-1-1-1-1-1-1-1--------|

Verse:

G|-------------------------------------------------------------------------------------|
D|-------------------------------------------------------------------------------------|
A|-------------------------------------------------------------------------------------|
D|-1-1-1-1-1-1-1-1-(x10)---1-1-1-1-1-x-6-6-8\---1-1-1-1-7-8-10-12-10-8-----------------|

Chorus:

G|--------------------------------------------------------------------------------|
D|--------------------------------------------------------------------------------|
A|--------------------------------------------------------------------------------|
D|-6-6-6-6-6-6-6-6-6-6-6-6-6-6-6-6-1-1-1-1-1-1-1-1-1-1-1-1-1-1-1-1-(x2)-----------|

G|--------------------------------------------------------------------------------|
D|--------------------------------------------------------------------------------|
A|--------------------------------------------------------------------------------|
D|-7-8-10-12-10-8-----------------------------------------------------------------|

Bridge:

G|-------------------------------------------------------------------------|
D|-------------------------------------------------------------------------|
A|-------------------------------------------------------------------------|
D|-6-6-6-6-6-6-6-6-8-8-8-8-8-8-8-8-13-13-13-13-13-13-13-13-10-10-10-10-10--|

G|-----------------------------------------------------------------------------------|
D|-----------------------------------------------------------------------------------|
A|-----------------------------------------------------------------------------------|
D|-10-10-10-(x4)---6-6-6-6-6-6-6-6-8-8-8-8-8-8-8-8-1-1-1-1-1-1-1-1-------------------|

G|--------------------------------------------------------------------------------|
D|--------------------------------------------------------------------------------|
A|--------------------------------------------------------------------------------|
D|-1-1-1-1-7-8-10-12-10-8---------------------------------------------------------|


Outro:

G|--------------------------------------------------------------------------------|
D|--------------------------------------------------------------------------------|
A|--------------------------------------------------------------------------------|
D|-6-6-6-6-6-6-6-6-8-8-8-8-8-8-8-8--1-1-1-1-1-1-1-1-(x3)--------------------------|

Thats it. If you have any comments or corrections email me.


| /  slide up
| \  slide down
| h  hammer-on
| p  pull-off
| ~  vibrato
| +  harmonic
| x  Mute note
===============================================================================
comments
We did not receive enough feedback on this tab! Please rate:
print report bad tab
1 2 3 4 5
I want to post or [tab]
guest
You may want to rate the tab now too:
select rating
Please do not post tabs as comments. Select "correction" instead!