Oops, an error
Loading. Please wait.

Get It Faster Tab

version 1
version 1

Solo

Whole song

Interactive

7,083 views 1 this week
2 commentsread comments
1 2 3 4 5
x 11
add to favorites
×
Save as Personal and add changes to this tab that will be seen only by you. Learn more ›
×
You can save this tab as Personal to edit and correct it or add notes. All changes will be seen only by you. Learn more »
save as personal
new!
launch autoscroll
font size
0
reset
how to read this tab
guitar tuner
Autoscroll
slow
fast
+/-
esc
set tempo
stop
Tabbed by:  Mike M
Email:  dumpweed15@hotmail.com

Tuning: drop d       version 2 of this song is good but the solo is off
so heres my version of the solo

e|---------------------------------------------------------------------------
B|---------------------------------------------------------------------------
G|--------3---------3-3-------3--------3-3------3--3-2-0-2-------2-2h3-0-0---
D|---------------------------------------------------------------------------
A|----5-5-----5-5-5-------1-1----1-1-1-------3-3--3-----------0-0------------
E|----5-5-----5-5-5-------1-1----1-1-1-------3-3--3-----------0-0------------
      
 guitar 2
 part here 
e|-------------------------------------11-11---------------------------------
B|--------11--------11-11-----11-------11-11----11-11-10-8-10---10-10h11-8---
G|---------------------------------------------------------------------------
D|---------------------------------------------------------------------------
A|---------------------------------------------------------------------------
E|---------------------------------------------------------------------------
                                                                  x4            
   
       palm mute the power chords slightly the first 2 times played


| /  slide up
| \  slide down
| h  hammer-on
| p  pull-off
| ~  vibrato
| +  harmonic
| x  Mute note

===============================================================================
Suggest correction
comments
print report bad tab
2 comments total.
0 reply
FOO-chan 10 Jul 08, 2006 03:38 PM

descent but the single notes don'e fit.

E----------------------------------------------------------------
B-----3-------33------3-------44-------3---3-1--1----1---1-3-----
G------------------------------------------------------------33--
D-55-----555------11-----111-------33----3-----3--00---0---------
A-55-----555------11-----111-------33----3-----3--00---0---------
D-55-----555------11-----111-------33----3-----3--00---0---------

it's also played with two guitars (why, i don't know)

0 reply
mattsem 46 Aug 15, 2006 02:33 AM

great tab

guest
Wanna post a correction for this tab? Suggest correction