Oops, an error
Loading. Please wait.

Get It Faster solo tab

version 2
version 2

Solo

Whole song

Interactive

2,002 views 1 this week
2 commentsread comments
1 2 3 4 5
1 last vote to show rating
add to favorites
×
Save as Personal and add changes to this tab that will be seen only by you. Learn more ›
×
You can save this tab as Personal to edit and correct it or add notes. All changes will be seen only by you. Learn more »
launch autoscroll
font size
0
reset
how to read this tab
guitar tuner
edit
Autoscroll
slow
fast
+/-
esc
set tempo
stop
Author
Okay... first of all, the way I figured it out requires TWO guitars playing
simultaneously; Guitar 1 playing low end power chords, Guitar 2 playing high
end riffs. But I'm showing the tabs on the same tab lines.

Tuned to D
                             
e-----6-------6-6-----6-------6*6*----6---6-5---6-----5----5-6-3-3|
B-----------------------------------------------------------------|
G-----------------------------------------------------------------|
D-5-5---5-5-5-----1-1---1-1-1-----3-3---3-----3---1-1---1^--------|
A-5-5---5-5-5-----1-1---1-1-1-----3-3---3-----3---1-1---1^--------|
D-5-5---5-5-5-----1-1---1-1-1-----3-3---3-----3---1-1---1^--------|


*bend 1/4 fret
^don't push all the way down with your fretting hand

Tiny_Gordo@hotmail.com
Suggest correction
Creating personal tab
Creating personal tab
You can edit any tab online and save it as your Personal.

You can edit, replace or remove any tab part or add personal notes – all changes will be seen only by you.

Personal tabs can be accessed anytime from any device, even offline.
Learn more »
Give kudos to tab author, rate the tab!
1 2 3 4 5
comments
print report bad tab
2 comments total.
0 reply
chubby 15 Oct 24, 2002 08:00 PM

e-----6-------6-6-----6-------6*6*----6---6-5---6-----5----5-6-3-3|
B-----------------------------------------------------------------|
G-----------------------------------------------------------------|
D-5-5---5-5-5-----1-1---1-1-1-----3-3---3-----3---0-0---0^--------|
A-5-5---5-5-5-----1-1---1-1-1-----3-3---3-----3---0-0---0^--------|
D-5-5---5-5-5-----1-1---1-1-1-----3-3---3-----3---0-0---0^--------|

0 reply
Nano556 51 Mar 13, 2009 06:38 AM

wayyyy off, the 5* version iof this tab has the correct "solo"

guest
You may want to rate the tab now too:
select rating
Wanna post a correction for this tab? Suggest correction