Oops, an error
Loading. Please wait.

Get It Faster Tab

version 3
version 3

Whole song

Interactive

733 views 1 this week
2 commentsread comments
1 2 3 4 5
x 3
add to favorites
launch autoscroll
font size
0
reset
how to read this tab
guitar tuner
Autoscroll
slow
fast
+/-
esc
set tempo
stop
Help us to improve Ultimate-Guitar.com Take our survey!
×
----------------------------------------------------------------------------
                             get it faster-jimmy eat world
----------------------------------------------------------------------------
Tabbed by:matt
Email:doesnt work

Tuning:drop D (dadgbe)

intro
e|--------------------------------------------------------------------------|
B|--------------------------------------------------------------------------|
G|--------------------------------------------------------------------------|
D|--------------------------------------------------------------------------|
A|--------------------------------------------------------------------------|
D|--55555555/88888888\33333333\11111111/-----6x-----------------------------|
    ....................................  <~~ pm
chorus1
e|--------------------------------------------------------------------------|
B|--------------------------------------------------------------------------|
G|--------------------------------------------------------------------------|
D|----55555555/88888888\33333333\11111111/------2x--------------------------|
A|----55555555/88888888\33333333\11111111/----------------------------------|
D|----55555555/88888888\33333333\11111111/----------------------------------|
verse 1
e|--------------------------------------------------------------------------|
B|--------------------------------------------------------------------------|
G|--------------------------------------------------------------------------|
D|--------------------------------------------------------------------------|
A|--------------------------------------------------------------------------|
D|--55555555/88888888\33333333\11111111/-----2x-----------------------------|
    ....................................  <~~ pm
chorus2
e|--------------------------------------------------------------------------|
B|--------------------------------------------------------------------------|
G|--------------------------------------------------------------------------|
D|--55555555/88888888\33333333\11111111/55555555/88888888\33333333\
A|--55555555/88888888\33333333\11111111/55555555/88888888\33333333\
D|--55555555/88888888\33333333\11111111/55555555/88888888\33333333\

e|--------------------------------------------------------------------------|
B|--------------------------------------------------------------------------|
G|--------------77777777/1010101010101010\55555555\33333333/----------------|
D|---\111111/88\55555555/8-8-8-8-8-8-8-8-\33333333\11111111/----------------|
A|---\111111/88\55555555/8-8-8-8-8-8-8-8-\33333333\11111111/----------------|
D|---\111111/88\55555555/8-8-8-8-8-8-8-8-\33333333\11111111/----------------|

e|--------------------------------------------------------------------------|
B|--------------------------------------------------------------------------|
G|-77777777/1010101010101010\55555555\333333/1010\-slide into solo part-----|
D|-55555555/8-8-8-8-8-8-8-8-\33333333\111111/8-8-\--------------------------|
A|-55555555/8-8-8-8-8-8-8-8-\33333333\111111/8-8-\--------------------------|
D|-55555555/8-8-8-8-8-8-8-8-\33333333\111111/8-8-\--------------------------|


solo part this takes two guitars but i found a way to do it with 1 so yea...
e|--------------------------------------------------------------------------|
B|----3-----33---3-----44------3--31-1-----1------13------------------------|
G|----3-----33---3-----33------3--33-3-----3------2300----------------------|
D|-55---555----11--111------33---3--3---00-----0----------4x----------------|
A|-55---555----11--111------33---3--3---00-----0----------------------------|
D|-55---555----11--111------33---3--3---00-----0----------------------------|
                                               . <~~palm mute

he just pic scrapes a lot between the solo and the 2 verse

verse 2 (if you listen closely you can hear sum high pitch notes)
e|------------------------------------3-3-3-3-3-3-3-3-1-1-1-1-1-1-1-1--------|
B|---------------------------------------------------------------------------|
G|---7-7-7-7-7-7-7-7-1010101010101010----------------------------------------|
D|--------------------------------------------------------------------2x-----|
A|---------------------------------------------------------------------------|
D|--5-5-5-5-5-5-5-5-/8-8-8-8-8-8-8-8\3-3-3-3-3-3-3-3\1-1-1-1-1-1-1-1---------|

the notes on the G and e string are played after the notes on the D string (5/7/5/7) 
easier to finger pic it)
chorus 3
e|--------------------------------------------------------------------------|
B|--------------------------------------------------------------------------|
G|--------------------------------------------------------------------------|
D|55555555/88888888\33333333\11111111/55555555/88888888\33333333\111111/88\
A|55555555/88888888\33333333\11111111/55555555/88888888\33333333\111111/88\
D|55555555/88888888\33333333\11111111/55555555/88888888\33333333\111111/88\

e|---------------------------------------------------------------------------|
B|---------------------------------------------------------------------------|
G|77777777/1010101010101010\55555555\33333333/77777777/1010101010101010\-----|
D|55555555/8-8-8-8-8-8-8-8-\33333333\11111111/55555555/8-8-8-8-8-8-8-8-\-----|
A|55555555/8-8-8-8-8-8-8-8-\33333333\11111111/55555555/8-8-8-8-8-8-8-8-\-----|
D|55555555/8-8-8-8-8-8-8-8-\33333333\11111111/55555555/8-8-8-8-8-8-8-8-\-----|

                                             end on this**
e|------------------------------------------|-------------------------------|
B|------------------------------------------|-------------------------------|
G|55555555\333333/1010\--slide into finish--|----7-7~-----------------------|
D|33333333\111111/8-8-\---------------------|----5-5~-----------------------|
A|33333333\111111/8-8-\---------------------|----5-5~-----------------------|
D|33333333\111111/8-8-\---------------------|----5-5~-----------------------|


| /  slide up
| \  slide down
| h  hammer-on
| p  pull-off
| ~  vibrato
| +  harmonic
| x  Mute note
============================================================================
Suggest correction
Give kudos to tab author, rate the tab!
1 2 3 4 5
comments
print report bad tab
2 comments total.
0 reply
*BBC|Typhoon 10 Nov 11, 2004 12:00 AM

I'm pretty sure both Tom and Jim play the whole solo; they don't alternate parts :)

0 reply
BrokenWingman 99 Jan 21, 2006 12:19 PM

The "solo" (bridge) part is really close, but not quite right... here's what it should be

e----------------------------------------------------|
B-----3-------3-3-----3-------3/4-----3-3-1--1/3-1---|
G-----3-------3-3-----3-------3-3-----3-3-2--2/3-2-3-|
D-5-5---5-5-5-----1-1---1-1-1-----3-3------3-------5-| Repeat 4x
A-5-5---5-5-5-----1-1---1-1-1-----3-3------3---------|
E-5-5---5-5-5-----1-1---1-1-1-----3-3------3---------|

guest
You may want to rate the tab now too:
select rating
Wanna post a correction for this tab? Suggest correction