Oops, an error
Loading. Please wait.

Get It Faster Tab

version 5
version 5

Interactive

22,372 views 24 this week
3 commentsread comments
1 2 3 4 5
excellent!
x 18
add to favorites
launch autoscroll
font size
0
reset
how to read this tab
guitar tuner
Autoscroll
slow
fast
+/-
esc
set tempo
stop
Help us to improve Ultimate-Guitar.com Take our survey!
×
Author
-------------------------------------------------------------------------------
                             Get It Faster - Jimmy Eat World
-------------------------------------------------------------------------------
Tabbed by:Dont ask12000
Email:donttask12000@yahoo.com

Tuning: Drop D

  I dont care what u do im getting out no nothing ever shames me dont want a thing
from you im goint out I dont care it your angry
e|---------------------------------------------------------------------------|
B|---------------------------------------------------------------------------|
G|---------------------------------------------------------------------------|
D|---------------------------------------------------------------------------|
A|---------------------------------------------------------------------------|
E|-55555555/88888888\33333333\11111111/55555555/88888888\33333333\11111111---|
   ........ ........ ........ ........ ........ ........ ........ ........ pm

ah ha ha ah ha ha ha im getting out no nothing ever shames me ah ha ha ah ha ha
ha ah im going out I dont care if your angry
e|---------------------------------------------------------------------------|
B|---------------------------------------------------------------------------|
G|---------------------------------------------------------------------------|
D|-55555555-88888888-33333333-11111111-55555555-88888888-33333333-1111/81----|
A|-55555555-88888888-33333333-11111111-55555555-88888888-33333333-1111/81----|
E|-55555555-88888888-33333333-11111111-55555555-88888888-33333333-1111/81----|

I should've thought things through im holding out but not getting an answer I wanna
do right by you im finding out cheating gets it faster
e|---------------------------------------------------------------------------|
B|---------------------------------------------------------------------------|
G|---------------------------------------------------------------------------|
D|---------------------------------------------------------------------------|
A|---------------------------------------------------------------------------|
E|-55555555/88888888/33333333/11111111/55555555/88888888/33333333/11111111---|
   ........ ........ ........ ........ ........ ........ ........ ........ pm
ah ha ha ah ha ha ha Im holding out, not getting an answer ah ha ha ah ha ha ha Im
finding out that cheating gets it faster.
e|---------------------------------------------------------------------------|
B|---------------------------------------------------------------------------|
G|---------------------------------------------------------------------------|
D|-55555555-88888888-33333333-11111111-55555555-88888888-33333333-1111/81----|
A|-55555555-88888888-33333333-11111111-55555555-88888888-33333333-1111/81----|
E|-55555555-88888888-33333333-11111111-55555555-88888888-33333333-1111/81----|
ah ha ha ah ha ha ha I'm holding out, but not getting an answer ah ha ha
e|---------------------------------------------------------------------------|
B|---------------------------------------------------------------------------|
G|-77777777-101010101010101055555555-33333333-77777777-----------------------|
D|-55555555-8-8-8-8-8-8-8-8-33333333-11111111-55555555-----------------------|
A|-55555555-8-8-8-8-8-8-8-8-33333333-11111111-55555555-----------------------|
E|-55555555-8-8-8-8-8-8-8-8-33333333-11111111-55555555-----------------------|
ah ha ha ha hI'm finding out, cheating gets it faster
e|---------------------------------------------------------------------------|
B|---------------------------------------------------------------------------|
G|-101010101010101055555555-3333/103-----------------------------------------|
D|-8-8-8-8-8-8-8-8-33333333-1111/8-1-----------------------------------------|
A|-8-8-8-8-8-8-8-8-33333333-1111/8-1-----------------------------------------|
E|-8-8-8-8-8-8-8-8-33333333-1111/8-1-----------------------------------------|

__________________________________SOLO________________________________________
for the mute in the solo mute with your palm
In the solo in guitar 2 all the notes should be played along with the
high notes in guitar 1

guitar 1
e|---------------------------------------------------------------------------|
B|---------------------------------------------------------------------------|
G|--------3---------3-3-------3--------5-5------3--3-2---2-------2---2h3-0-0-|
D|----5-5-----5-5-5-------1-1----1-1-1-------3-3--3----3------0-0--x---------|
A|----5-5-----5-5-5-------1-1----1-1-1-------3-3--3----3------0-0--x---------|
E|----5-5-----5-5-5-------1-1----1-1-1-------3-3--3----3------0-0--x---------|

Guitar 2
e|---------------------------------------------------------------------------|
B|-------11-------11-11-----11---------13-13--11-11-10--10--10--10h11-8-8----|
G|---------------------------------------------------------------------------|
D|---------------------------------------------------------------------------|
A|---------------------------------------------------------------------------|
E|---------------------------------------------------------------------------|
Play the above solo 4 times

I dont care what you do Im getting out no nothing ever shames me dont wanna thing
from you Im going out I dont care if youre angry.
e|-----------------------3-3-3-3-1-1-1-1-7-7-7-7-10-10-10-10-3-3-3-3-1-1-1-1-|
B|---------------------------------------------------------------------------|
G|---7-7-7-7-10-10-10-10-----------------------------------------------------|
D|---------------------------------------------------------------------------|
A|---------------------------------------------------------------------------|
D|--5-5-5-5-8--8--8--8--3-3-3-3-1-1-1-1-5-5-5-5-8--8--8--8--3-3-3-3-1-1-1-1--|

I shouldve thought things through yeah Im holding out but not getting an answer I
wanna do right by you Im finding out that cheating gets it faster
guitar 1
e|-----------------------3-3-3-3-1-1-1-1-7-7-7-7-10-10-10-10-3-3-3-3-1-1-1-1-|
B|---------------------------------------------------------------------------|
G|---7-7-7-7-10-10-10-10-----------------------------------------------------|
D|---------------------------------------------------------------------------|
A|---------------------------------------------------------------------------|
D|--5-5-5-5-8--8--8--8--3-3-3-3-1-1-1-1-5-5-5-5-8--8--8--8--3-3-3-3-1-1-1-1--|

Guitar 2
e|-55555555-88888888-33333333-11111111-55555555-88888888-33333333---------55-|
B|-55555555-88888888-33333333-11111111-55555555-88888888-33333333---------55-|
G|-55555555-88888888-33333333-11111111-55555555-88888888-33333333---------55-|
D|---------------------------------------------------------------------------|
A|---------------------------------------------------------------------------|
E|---------------------------------------------------------------------------|
   ........ ........ ........ ........ ........ ........ ........ light pm
______________________________________ENDING____________________________________

ah ha ha ah ha ha ha Im getting out no nothing ever shames me ah ha ha ah ha ha ha
Im going out I dont care if you're angry
e|---------------------------------------------------------------------------|
B|---------------------------------------------------------------------------|
G|---------------------------------------------------------------------------|
D|-55555555-88888888-33333333-11111111-55555555-88888888-33333333-1111/81----|
A|-55555555-88888888-33333333-11111111-55555555-88888888-33333333-1111/81----|
E|-55555555-88888888-33333333-11111111-55555555-88888888-33333333-1111/81----|

ah ha ha ah ha ha ha Im holding out but not getting an answer ah ha ha ah ha ha ha
Im finding out cheating gets it faster
guitar 1
e|---------------------------------------------------------------------------|
B|---------------------------------------------------------------------------|
G|---------------------------------------------------------------------------|
D|-55555555-88888888-33333333-11111111-55555555-88888888-33333333-1111/81-55-|
A|-55555555-88888888-33333333-11111111-55555555-88888888-33333333-1111/81-55-|
E|-55555555-88888888-33333333-11111111-55555555-88888888-33333333-1111/81-55-|

guitar 2
e|---------------------------------------------------------------------------|
B|---------------------------------------------------------------------------|
G|-77777777-77777777-77777777-77777777-77777777-77777777-77777777-77777777---|
D|-------------------------------------------------------------------------55|
A|-------------------------------------------------------------------------55|
E|-------------------------------------------------------------------------55|

The end part should be played so that both guitars end on the fifth fret
| /  slide up
| \  slide down
| h  hammer-on
| p  pull-off
| ~  vibrato
| +  harmonic
| x  Mute note
| .  palm mute
===============================================================================
Suggest correction
What's this?
You can suggest a correction to this tab. Community and Mods will review your correction and vote to approve or reject it.
comments
print report bad tab
3 comments total.
0 reply
mistaman 471 wrote on April 5 2006, 11:20 pm

i think its still a 3 on the g string after the second round of the F chord.

+3 reply
ianscrandlecake 56 wrote on March 17 2007, 03:54 am

nice tablaturing skills

+2 reply
allfooie 470 wrote on October 16 2008, 04:46 am

sick song sick tab

guest
You may want to rate the tab now too:
select rating
Please do not post tabs as comments. Select "correction" instead!