Oops, an error
Loading. Please wait.
We have Chord Pro version of Get Right.
It's the closest thing you can get to the original song and it has interactive parts. Check out the tab »
×

Get Right tab

version 1
version 1

Whole song

  • Based on the studio recording from Integrity Blues.

Interactive

235 views 15 this week
2 commentsread comments
1 2 3 4 5
2 more votes to show rating
add to favorites
×
Save as Personal and add changes to this tab that will be seen only by you. Learn more ›
×
You can save this tab as Personal to edit and correct it or add notes. All changes will be seen only by you. Learn more »
launch autoscroll
font size
0
reset
how to read this tab
guitar tuner
edit
Autoscroll
slow
fast
+/-
esc
set tempo
stop
About this tab version
Based on the studio recording from Integrity Blues. Was this info helpful? Yes No
This is how I play the song, but it's up for interpretation.  Use this as a reference, and play how 
you see fit.


[Intro]/[verse] [0:00 - 0:34]

    This riff is nearly played throughout the whole song
e|---------------------------------------------------------------------------|
B|---------------------------------------------------------------------------| 
G|---------------------------------------------------------------------------|
D|---------------------------------------------------------------------------|  x6
A|-5-5-5-5-5-5-5-5-----------------------------------------------------------| 
D|-----------------3-3-3-3-3-3-3-3-8-8-8-8-8-8-8-8-5-5-5-5-5-5-5-5-----------|
PM..........................................................................




[Chorus] [0:34 - 0:55]
 
Guitar 1 
You can keep playing the same riff as the verse, or open it up like so:
e|---------------------------------|-----------------------------------------|
B|---------------------------------|-----------------------------------------|
G|-7-7-7-7-------------------------|-7-7-7-7---------------------------------|
D|-7-7-7-7-3-3-3-3-8-8-8-8-5-5-5-5-|-7-7-7-7-3-3-3-3-8-8-8-8-5-5-5-5---------|  x2
A|-5-5-5-5-3-3-3-3-8-8-8-8-5-5-5-5-|-5-5-5-5-3-3-3-3-8-8-8-8-5-5-5-5---------|
D|---------3-3-3-3-8-8-8-8-5-5-5-5-|---------3-3-3-3-8-8-8-8-5-5-5-5---------|


Guitar 2
This keeps getting played throughout the chorus
e|-------------------------|------------------------|
B|-10-10-10-10-10-10-10-10-|10-10-10-10-10-10-10-10-|
G|---7--7--7--7--7--7--7--7|--7--7--7--7--7--7--7--7|
D|-------------------------|------------------------|  x2
A|-------------------------|------------------------|
D|-------------------------|------------------------|



[Bridge 1] [0:56 - 1:07]

Guitar 1 (let it ring)
e|---------------------------------------------------------------------------|
B|---------------------------------------------------------------------------|
G|---------------------------------------------------------------------------|
D|-0-------------------------------------------------------------------------|
A|-0-------------------------------------------------------------------------|
D|-0-------------------------------------------------------------------------|

Guitar 2
e|---------------------------------------------------------------------------|
B|-10----11~-----/10---------------------------------------------------------|
G|----10-------------10-7~---------------------------------------------------|
D|---------------------------------------------------------------------------|
A|---------------------------------------------------------------------------|
D|---------------------------------------------------------------------------|



[Verse2] same as first [1:07 - 1:29]
e|---------------------------------------------------------------------------|
B|---------------------------------------------------------------------------| 
G|---------------------------------------------------------------------------|
D|---------------------------------------------------------------------------|  x4
A|-5-5-5-5-5-5-5-------------------------------------------------------------| 
D|---------------3-3-3-3-3-3-3-3-8-8-8-8-8-8-8-8-5-5-5-5-5-5-5-5-------------|
PM..........................................................................



[Chorus2] same as first [1:30 - 1:51]

Guitar 1 
e|---------------------------------|-----------------------------------------|
B|---------------------------------|-----------------------------------------|
G|-7-7-7-7-------------------------|-7-7-7-7---------------------------------|
D|-7-7-7-7-3-3-3-3-8-8-8-8-5-5-5-5-|-7-7-7-7-3-3-3-3-8-8-8-8-5-5-5-5---------|  x2
A|-5-5-5-5-3-3-3-3-8-8-8-8-5-5-5-5-|-5-5-5-5-3-3-3-3-8-8-8-8-5-5-5-5---------|
D|---------3-3-3-3-8-8-8-8-5-5-5-5-|---------3-3-3-3-8-8-8-8-5-5-5-5---------|


Guitar 2
e|-------------------------|------------------------|
B|-10-10-10-10-10-10-10-10-|10-10-10-10-10-10-10-10-|
G|---7--7--7--7--7--7--7--7|--7--7--7--7--7--7--7--7|
D|-------------------------|------------------------|  x2
A|-------------------------|------------------------|
D|-------------------------|------------------------|





 [Bridge 2/ Interlude] [1:52 - 2:14]
 
Guitar 1
e|----------------------------------------------------------------------------|
B|----------------------------------------------------------------------------|
G|--7-7-7-7-7-7-7-7-----------------------------------------------------------|
D|--7-7-7-7-7-7-7-7-8-8-8-8-10-10-10-10---------------------------------------| x3
A|--5-5-5-5-5-5-5-5-8-8-8-8-10-10-10-10---------------------------------------| 
D|------------------8-8-8-8-10-10-10-10---------------------------------------|

e|---------------------------------------------------------------------------|
B|---------------------------------------------------------------------------|
G|-7-7-7-7-7-7-7-7-----------------------------------------------------------|
D|-7-7-7-7-7-7-7-7-8---8---8---8---------------------------------------------|
A|-5-5-5-5-5-5-5-5-8---8---8---8---------------------------------------------|
D|-----------------8---8---8---8---------------------------------------------|


Guitar 2 I think it's something like this.  The '10(x24)' is 10 played about 24 times.
e|---------------------------------------------------------------------------|
B|---------------------------------------------------------------------------|
G|-10(x24)-9-9-9-9-7-7-7-7---10(X24)-12-12-12b14-14-14-14-14-----------------|
D|---------------------------------------------------------------------------| x4 
A|---------------------------------------------------------------------------|
D|---------------------------------------------------------------------------|
   *With the bend, bend it gradually, then keep playing it.  The 14 doesn't mean the 14th fret, but the bend
    continues.  If that makes sense?




[Chorus 3] [2:15 - 2:36]

Guitar 1 
e|---------------------------------|-----------------------------------------|
B|---------------------------------|-----------------------------------------|
G|-7-7-7-7-------------------------|-7-7-7-7---------------------------------|
D|-7-7-7-7-3-3-3-3-8-8-8-8-5-5-5-5-|-7-7-7-7-3-3-3-3-8-8-8-8-5-5-5-5---------|  x2
A|-5-5-5-5-3-3-3-3-8-8-8-8-5-5-5-5-|-5-5-5-5-3-3-3-3-8-8-8-8-5-5-5-5---------|
D|---------3-3-3-3-8-8-8-8-5-5-5-5-|---------3-3-3-3-8-8-8-8-5-5-5-5---------|


Guitar 2
e|-------------------------|------------------------|
B|-10-10-10-10-10-10-10-10-|10-10-10-10-10-10-10-10-|
G|---7--7--7--7--7--7--7--7|--7--7--7--7--7--7--7--7|
D|-------------------------|------------------------|  x2
A|-------------------------|------------------------|
D|-------------------------|------------------------|


[Outro] 

Guitar 1 (let it ring)
e|---------------------------------------------------------------------------|
B|---------------------------------------------------------------------------|
G|---------------------------------------------------------------------------|
D|-0-------------------------------------------------------------------------|
A|-0-------------------------------------------------------------------------|
D|-0-------------------------------------------------------------------------|

Guitar 2
e|---------------------------------------------------------------------------|
B|-10----11~-----/10---------------------------------------------------------|
G|----10-------------10-7~---------------------------------------------------|
D|---------------------------------------------------------------------------|
A|---------------------------------------------------------------------------|
D|---------------------------------------------------------------------------|

Ends with:
e|---------------------------------------------------------------------------|
B|---------------------------------------------------------------------------|
G|-7-7-7-7-7-7-7-7-----------------------------------------------------------|
D|-7-7-7-7-7-7-7-7-----------------------------------------------------------|
A|-5-5-5-5-5-5-5-5-----------------------------------------------------------|
D|---------------------------------------------------------------------------|




************************************

| b   Bend
| pb  Pre-bend
| /   Slide up
| \   Slide down
| .PM  Palm mute
| ~ vibrato


************************************
Suggest correction
Creating personal tab
Creating personal tab
You can edit any tab online and save it as your Personal.

You can edit, replace or remove any tab part or add personal notes – all changes will be seen only by you.

Personal tabs can be accessed anytime from any device, even offline.
Learn more »
Give kudos to tab author, rate the tab!
1 2 3 4 5
comments
print report bad tab
2 comments total.
0 reply
Cosmicwolf189 10 Jun 18, 2017 05:23 PM

I'm pretty sure that it's not 5th fret a for the first note, it's supposed to be open low e. The song has the same notes/chords as get it faster

guest
You may want to rate the tab now too:
select rating
Wanna post a correction for this tab? Suggest correction