Oops, an error
Loading. Please wait.

Gotta Be Somebodys Blues Bass Tab

1,038 views 1 this week
no commentswrite comment
1 2 3 4 5
please rate
add to favorites
launch autoscroll
font size
0
reset
guitar tuner
Autoscroll
slow
fast
+/-
esc
set tempo
stop
Help us to improve Ultimate-Guitar.com Take our survey!
×
Author
Difficulty
Tuning
novice
D A D G B E
Artist: Jimmy Eat World
Title: Gotta Be Somebody's Blues
Album: Chase This Light

Tuning: Drop-D


**Guitar Intro**


Intro 0:25 (x2)
G|---------------------------------|
D|---------------------------------|
A|-8-8-8-8-8-8-8-8-8-8-8-8-8-8-8-8-|
D|---------------------------------|

G|---------------------------------|
D|---------------------------------|
A|-6-6-6-6-6-6-6-------------------|
D|---------------6-8-8-8-8-8-8-8-8-|


Verse (x2)
G|---------------------------------|
D|---------------------------------|
A|-8-8-8-8-8-8-8-8-8-8-8-8-8-8-8-8-|
D|---------------------------------|

G|---------------------------------|
D|---------------------------------|
A|-6-6-6-6-6-6-6-------------------|
D|---------------6-8-8-8-8-8-8-8-8-|


Chorus
G|-------------------------------------------------|
D|-------------------------------------------------|
A|-----------------6-6-6-6-6-6-6-6-----------------|
D|-6-6-6-6-6-6-6-6-----------------8-8-8-8-8-8-8-8-|

G|-----------------|
D|-----------------|
A|-----------------|
D|-8-8-8-8-8-8-8-8-|

G|-------------------------------------------------|
D|-------------------------------------------------|
A|-6-6-6-6-6-6-6-6-----------------8-8-8-8-8-8-8-8-|
D|-----------------8-8-8-8-8-8-8-8-----------------|

G|------------------------------|----------------------------|
D|------------------------------|----------------------------|
A|-8-8-6\8--11--8-8--11p8-11h13-|-8-8-6\8--11--8-8--11p8-6h8-|
D|------------------------------|----------------------------|
 ^  Play this the first chorus  ^    Play this the second    ^


Interlude
G|-------------------------------------------------|
D|-------------------------------------------------|
A|-6-6-6-6-6-6-6-6-----------------8-8-8-8-8-8-8-8-|
D|-----------------8-8-8-8-8-8-8-8-----------------|

G|------------------------------|
D|------------------------------|
A|-8-8-6\8--11--13-13--15p13-11-|
D|------------------------------|

G|-------------------------------------------------|
D|-------------------------------------------------|
A|-6-6-6-6-6-6-6-6-----------------8-8-8-8-8-8-8-8-|
D|-----------------8-8-8-8-8-8-8-8-----------------|

G|-----------------|
D|-----------------|
A|-8-8-8-8-8-8-8-8-|
D|-----------------|


**Rest**
When you're feeling moot...


Post-Interlude
G|-------------------------------------------------|
D|-------------------------------------------------|
A|-----------------6-6-6-6-6-6-6-6-----------------|
D|-6-6-6-6-6-6-6-6-----------------8-8-8-8-8-8-8-8-|

G|-----------------|
D|-----------------|
A|-----------------|
D|-8-8-8-8-R-R-R-R-|

G|-------------------------------------------------|
D|-------------------------------------------------|
A|-6-6-6-6-6-6-6-6-----------------8-8-8-8-8-8-8-8-|
D|-----------------8-8-8-8-8-8-8-8-----------------|

G|------------------------------|
D|------------------------------|
A|-8-8-6\8--11--8-8--11p8-11h13-|
D|------------------------------|

G|-------------------------------------------------|
D|-------------------------------------------------|
A|-6-6-6-6-6-6-6-6-----------------8-8-8-8-8-8-8-8-|
D|-----------------8-8-8-8-8-8-8-8-----------------|

G|------------------------------|
D|------------------------------|
A|-8-8-6\8--11--13-13--15p13-11-|
D|------------------------------|

G|-------------------------------------------------|
D|-------------------------------------------------|
A|-6-6-6-6-6-6-6-6-----------------8-8-8-8-8-8-8-8-|
D|-----------------8-8-8-8-8-8-8-8-----------------|

G|---------------------------|
D|-----8p6--6----------------|
A|-8-8----------8-8--8p6-----|
D|-----------------------8\9-|

G|-------------------------------------------------|
D|-------------------------------------------------|
A|-6-6-6-6-6-6-6-6-----------------8-8-8-8-8-8-8-8-|
D|-----------------8-8-8-8-8-8-8-8-----------------|

G|-------------------------------|
D|-------------------------------|
A|-8-8-6\8--11--8-8--11p8-6/3----|
D|----------------------------3~-|

Song Structure:
- Intro
- Verse
- Chorus
- Verse
- Chorus
- Interlude
- Rest
- Post-Interlude

----****----
--Comments--
----****----
A lot of corrections from my last version here.
This should sound better and be easier to play.
Many blanks from my previous tab have been filled
in as well.

Some of the fills are probably easier to play if
you move up to the d-string, but to me it sounds a
little bit too bright.  But it's something to keep
in mind if that makes it easier for you.
Suggest correction
Give kudos to tab author, rate the tab!
1 2 3 4 5
comments
print report bad tab
guest
You may want to rate the tab now too:
select rating
Wanna post a correction for this tab? Suggest correction