Oops, an error
Loading. Please wait.

Hear You Me Bass Tab

version 1
version 1

Whole song

Interactive

10,738 views 9 this week
4 commentsread comments
1 2 3 4 5
x 10
add to favorites
launch autoscroll
font size
0
reset
guitar tuner
Autoscroll
slow
fast
+/-
esc
set tempo
stop
Help us to improve Ultimate-Guitar.com Take our survey!
×
Author
Band - Jimmy Eat World
Song - Hear You Me
Album - Bleed American
Tabber - FlipSk8r13

Please rate this tab if you find it useful!

Verse
G|-------------
D|-------------
A|----2*-4*-0*-
E|-0*---------- 

The stars mean to hold the note for 12 counts... The song is in 3/4 time.

 Chorus
G|--------|--------|---------|--------|
D|--------|--------|---------|--------|
A|---2-0--|---2-0--|---2---0-|---2-0--|
E|-0------|-0------|-0---2---|-0------|

Solo Thing
G|--------------------
D|--------------------
A|-3------------------
E|---4---------------- 

Just repeat these notes over and over until you get back to the chorus.
Suggest correction
comments
print report bad tab
4 comments total. Showing first comments.
0 reply
barmycarmy 10 May 23, 2007 08:46 AM

I'm not too sure about the solo bit, but the rest of it works rather nicely :) I think its meant to be

----2---------
--0----0------

but like i said i'm not entirely sure.

0 reply
Dunne147 10 Dec 19, 2007 10:29 PM

ya solo might be a little different but the rest is perfect! still 5 stars from me.

0 reply
dave19hawks 10 May 11, 2008 04:46 PM

great tab dude

guest
You may want to rate the tab now too:
select rating
Wanna post a correction for this tab? Suggest correction