Oops, an error
Loading. Please wait.

Here It Goes Bass Tab

2,242 views 1 this week
1 commentread comment
1 2 3 4 5
x 5
add to favorites
launch autoscroll
font size
0
reset
guitar tuner
Autoscroll
slow
fast
+/-
esc
set tempo
stop
Help us to improve Ultimate-Guitar.com Take our survey!
×
Author
Difficulty
novice
Song: Here It Goes
Artist: Jimmy Eat World:
Album: Chase This Light
Standard Tuning

Key:
R=      Rest
(7)=    optional note
h=      hammer on
/ or \= slide


Verse:
|-------------------------------|
|-------------------------------|
|7x16---2x16---4x8--0x8--7x16---|
|-------------------------------| x2

Chorus:
|----------------|----------------|----------------|-----------------|
|----------------|----------------|----------------|-----------------|
|4-R-4-R4-44-6-7-|2-R-2-22-22-7-9-|----------------|-(7)-(7)-----6-7-|
|----------------|----------------|5-R-5-R5-42-0-2-|5---5---5-R5-----|

|----------------|----------------|----------------|-----------------|
|----------------|----------------|----------------|-----------------|
|4-R-4-44-44-6-7-|2-R-2-R2-22-7-9-|----------------|-(7)-(7)---------|
|----------------|----------------|5-R-5-R5-42-0-2-|5---5---5-52-2-2-|

|----------------|
|----------------|
|----------------|
|0-R-------------|

Verse:

|-------------|-------------|-------------|-------------|
|-------------|-------------|-------------|-------------|
|07-07-07-07--|07-07-07-07--|02-02-02-02--|02-02-02-02--|
|-------------|-------------|-------------|-------------|

|-------------|-------------|-------------|-------------|
|-------------|-------------|-------------|-------------|
|24-24-24-4R--|-------------|07-07-07-07--|07-07-07-07--|
|-------------|55-55-55-5r--|-------------|-------------|

|-------------|-------------|-------------|----------------|
|-------------|-------------|-------------|----------------|
|07-07-07-07--|07-07-07-07--|02-02-02-02--|02-02-02-02-2-2-|
|-------------|-------------|-------------|----------------|

|----------------|----------------|-------------|-------------|
|----------------|----------------|-------------|-------------|
|R-4-4-4-4-4-6-7-|R-0-0-0-0-0-7-9-|07-07-07-07--|07-07\\------|
|----------------|----------------|-------------|-------------|

Chorus:
|----------------|----------------|----------------|-----------------|
|----------------|----------------|----------------|-----------------|
|4-R-4-R4-44-6-7-|2-R-2-22-22-7-9-|----------------|-(7)-(7)-----6-7-|
|----------------|----------------|5-R-5-R5-42-0-2-|5---5---5-R5-----|

|----------------|----------------|----------------|-----------------|
|----------------|----------------|----------------|-----------------|
|4-R-4-44-44-6-7-|2-R-2-R2-22-7-9-|----------------|-(7)-(7)---9/11-9|
|----------------|----------------|5-R-5-R5-42-0-2-|5---5---5--------|

|----------------|----------------|----------------|-----------------|
|----------------|----------------|----------------|-----------7-9-9-|
|4-R-4-R4-44-6-7-|2-R-2-22-22-7-9-|----------------|-(7)-(7)---------|
|----------------|----------------|5-R-5-R5-42-0-2-|5---5---5-R------|

|----------------|----------------|----------------|-----------------|
|----------------|----------------|----------------|-----------------|
|4-R-4-44-44-6-7-|2-R-2-R2-22-7-9-|----------------|-(7)-(7)---------|
|----------------|----------------|5-R-5-R5-42-0-2-|5---5---5-5555R--|

Middle 8:
 Hey Hey Hey Hey                   Hey Hey Hey Hey
|----------------|----------------|----------------|----------------|
|----------------|----------------|----------------|----------------|
|----------------|2-2-2-2---------|----------------|----------------|
|----------------|--------4-4-4-4-|----------------|5-5-5-5-5-5-5-5-|

 Hey Hey Hey Hey                  
|----------------|----------------|
|----------------|----------------|
|----------------|2-2-2-2-7-7-7-7-|
|----------------|----------------|

Break:
|----------------|----------------|----------------|----------------|
|----------------|----------------|----------------|----------------|
|7-R-7-77-77-R7h9|----------------|----------------|--------------6-|
|----------------|7-R-7-77-77-R-4-|5-R-5-55-55-R-4-|5-R-5-55-55-R---|

|----------------|----------------|----------------|
|----------------|----------------|----------------|
|7-R-7-77-77-R7h9|----------------|----------------|
|----------------|2-R-2-R4-44-R-4-|5-R-5-55-55-R-R-|

Chorus:
|----------------|----------------|----------------|-----------------|
|----------------|----------------|----------------|-----------------|
|4-R-4-R4-44-6-7-|2-R-2-22-22-7-9-|----------------|-(7)-(7)-----6-7-|
|----------------|----------------|5-R-5-R5-42-0-2-|5---5---5-R5-----|

|----------------|----------------|----------------|-------------------|
|----------------|----------------|----------------|-------------------|
|4-R-4-44-44-6-7-|2-R-2-R2-2------|----------------|-(7)-(7)-----11-9-9|
|----------------|----------0-2-2-|5-R-5-R5-42-0-2-|5---5---5-5-R------|

|----------------|----------------|----------------|----------------|
|----------------|----------------|----------------|----------------|
|----------------|2-R-2-22-22-4-6-|----------------|------------2-2-|
|0-R-0-00-00-0-4-|----------------|5-R-5-R5-42-0-2-|5-R-5-55-RR-----|

|----------------|----------------|----------------|----------------|
|----------------|----------------|----------------|----------------|
|----------------|----------------|----------------|------------7777|
|0-R-0-00-00-0-0-|2-R-2-R4-44-R-4-|5-R-5-55-55-R-4-|555555555577----|

There is actually no final note for the bass, but if there was, it would be:
|-------|
|-------|
|-------|
|0------|
Suggest correction
comments
print report bad tab
1 comment total.
0 reply
chrisjenks 2,712 Aug 20, 2008 11:25 AM

good job! this is quite an intricate bass line for jimmy eat world!

guest
You may want to rate the tab now too:
select rating
Wanna post a correction for this tab? Suggest correction