Oops, an error
Loading. Please wait.

Kill Bass Tab

version 1
version 1

Whole song

Interactive

1,527 views 3 this week
2 commentsread comments
1 2 3 4 5
2 more votes to show rating
add to favorites
launch autoscroll
font size
0
reset
guitar tuner
Autoscroll
slow
fast
+/-
esc
set tempo
stop
Help us to improve Ultimate-Guitar.com Take our survey!
×
Author
Difficulty
novice
Artist: Jimmy Eat World
Album: Futures
Song: Kill
Tuning: Standard (E A D G)

* - hold note

Verse [x2]
G|---------------------------|
D|-8-55-8-55-8-5-------------|
A|--------------66666666-----|   [x3]
E|---------------------------|

G|---------------------------|
D|---------------------------|
A|---------88888888----------|
E|-66666666------------------|


Chorus x4
G|-------------------------------------|
D|----------11111111-------------------|
A|-------------------11111111----------|
E|-33333333-------------------11111111-|

or you can do this if you want to [x4]
G|-----12/14\12---------8/10\8--------------------------10/12\10-----------|
D|---12--------12------8------8--------8/10\8--------10--------10----------|
A|-10------------10--6----------6----8--------8----8--------------8--------|
E|---------------------------------6------------6--------------------------|

and finish either one with...

G|--------|
D|--------|
A|--10*---|
E|--------|

REST

Verse [x3]
Chorus [x4]

Bridge: "So go on  love..."
G|------------------------------------------------------------------------|
D|------------------------------------------------------------------------|
A|----8*-10*-6*---8*-1010101010101010-66666666---------88888888-----------|
E|-6*----------6*-----------------------------66666666--------------------|

G|-----------------------------------|
D|-----------------------------------|
A|--1010101010101010-66666666--------|
E|---------------------------66666666|

Chorus [x4]

REST until the end
Suggest correction
Give kudos to tab author, rate the tab!
1 2 3 4 5
comments
print report bad tab
2 comments total.
0 reply
hobbitguy 10 May 09, 2013 06:07 AM

Whats the / and \ mean?

0 reply
hobbitguy 10 May 09, 2013 06:07 AM

Whats the / and \ mean?

guest
You may want to rate the tab now too:
select rating
Wanna post a correction for this tab? Suggest correction