Oops, an error
Loading. Please wait.

Kill Bass Tab

version 3
version 3

Whole song

Interactive

3,235 views 3 this week
3 commentsread comments
1 2 3 4 5
accurate
x 4
add to favorites
launch autoscroll
font size
0
reset
guitar tuner
Autoscroll
slow
fast
+/-
esc
set tempo
stop
Help us to improve Ultimate-Guitar.com Take our survey!
×
Contributor
chrisjenks 2,376
Band: Jimmy Eat World	
Album: Futures
Song: Kill

I have tabbed both drop d and standard tuning versions:

Please Rate

1. Tuning: drop d

Verse (0:06)

G|----------------------------------|
D|-8-5-5-8-5-5-8-8------------------| 
A|-----------------6-6-6-6-6-6-6-6--| x3
D|----------------------------------|

G|----------------------------------|
D|----------------------------------| 
A|-1-1-1-1-1-1-1-1-3-3-3-3-3-3-3-3--|
D|----------------------------------|


G|----------------------------------|
D|-8-5-5-8-5-5-8-8------------------| 
A|-----------------6-6-6-6-6-6-6-6--| x3
D|----------------------------------|

G|-----------------5-----5----------|
D|-3-3-3-3-3-3-3-3---3-3------------| 
A|----------------------------------|
D|---------------------------3-3----|

Chorus (0:37)
			x4
G|----------------------------------|----|
D|----------------------------------|----| 
A|-----------------11111111---------|----|
D|-5555555511111111--------33333333-|-5~-|

Verse (1:14)

G|----------------------------------|
D|-8-5-5-8-5-5-8-8------------------| 
A|-----------------6-6-6-6-6-6-6-6--| x3
D|----------------------------------|

G|----------------------------------|
D|----------------------------------| 
A|-8-8-8-8-8-8-8-8-8-8-8-8-8-8-8-8--|
D|----------------------------------|

G|----------------------------------|
D|-8-5-5-8-5-5-8-8------------------| 
A|-----------------6-6-6-6-6-6-6-6--| x3
D|----------------------------------|

G|-----------------5-----5----------|
D|-3-3-3-3-3-3-3-3---3-3------------| 
A|----------------------------------|
D|---------------------------3-3----|

Chorus (1:44)

			x4
G|----------------------------------|----|
D|----------------------------------|-8~-| 
A|-----------------11111111---------|----|
D|-5555555511111111--------33333333-|----|

Pause 

Bridge (2:30)

G|----------------------------------|
D|----------------------------------| 
A|----------------------------------|
D|-88~-----88~-----33~-----33~------|

G|----------------------------------|
D|----------------------------------| 
A|----------------------------------|
D|-55~-----11~-----88~-----88~------|

G|----------------------------------|
D|----------------------------------| 
A|----------------------------------|
D|-88888888888888883333333333333333-|

G|----------------------------------|
D|----------------------------------| 
A|----------------------------------|
D|-55555555111111118888888888888888-|

G|----------------------------------|
D|----------------------------------| 
A|----------------------------------|
D|-88888888888888883333333333333333-|

G|----------------------------------|
D|----------------------------------| 
A|----------------------------------|
D|-55555555111111118888888888888-33-|

Final Chorus (3:01)
			x 4
G|----------------------------------|----|
D|----------------------------------|-5~-| 
A|-----------------11111111---------|----|
D|-5555555511111111--------33333333-|----|

Acoustic guitar until the end

=======================================================================

2. Standard Tuning

Verse (0:06)

G|----------------------------------|
D|-8-5-5-8-5-5-8-8------------------| 
A|-----------------6-6-6-6-6-6-6-6--| x3
E|----------------------------------|

G|----------------------------------|
D|----------------------------------| 
A|-1-1-1-1-1-1-1-1-3-3-3-3-3-3-3-3--|
E|----------------------------------|


G|----------------------------------|
D|-8-5-5-8-5-5-8-8------------------| 
A|-----------------6-6-6-6-6-6-6-6--| x3
E|----------------------------------|

G|-----------------5-----5----------|
D|-3-3-3-3-3-3-3-3---3-3------------| 
A|----------------------------------|
E|---------------------------1-1----|

Chorus (0:37)
			x4
G|----------------------------------|----|
D|---------11111111-----------------|----| 
A|-----------------11111111---------|----|
E|-33333333----------------11111111-|-3~-|

Verse (1:14)

G|----------------------------------|
D|-8-5-5-8-5-5-8-8------------------| 
A|-----------------6-6-6-6-6-6-6-6--| x3
E|----------------------------------|

G|----------------------------------|
D|----------------------------------| 
A|-8-8-8-8-8-8-8-8-8-8-8-8-8-8-8-8--|
E|----------------------------------|

G|----------------------------------|
D|-8-5-5-8-5-5-8-8------------------| 
A|-----------------6-6-6-6-6-6-6-6--| x3
E|----------------------------------|

G|-----------------5-----5----------|
D|-3-3-3-3-3-3-3-3---3-3------------| 
A|----------------------------------|
E|---------------------------1-1----|

Chorus (1:44)

			x4
G|----------------------------------|-3~-|
D|---------11111111-----------------|----| 
A|-----------------11111111---------|----|
E|-33333333----------------11111111-|----|

Pause 

Bridge (2:30)

G|----------------------------------|
D|----------------------------------| 
A|-11~-----11~----------------------|
E|-----------------11~-----11~------|

G|----------------------------------|
D|---------11-----------------------| 
A|-----------------11~-----11~------|
E|-33~------------------------------|

G|----------------------------------|
D|----------------------------------| 
A|-1111111111111111-----------------|
E|-----------------1111111111111111-|

G|----------------------------------|
D|---------11111111-----------------| 
A|-----------------1111111111111111-|
E|-33333333-------------------------|

G|----------------------------------|
D|----------------------------------| 
A|-1111111111111111-----------------|
E|-----------------1111111111111111-|

G|----------------------------------|
D|---------11111111-----------------| 
A|-----------------1111111111111----|
E|-33333333----------------------11-|

Final Chorus (3:01)
			x 4
G|----------------------------------|----|
D|---------11111111-----------------|-5~-| 
A|-----------------11111111---------|----|
E|-33333333----------------11111111-|----|

Acoustic guitar until the end
comments
print report bad tab
3 comments total.
0 reply
spiff-corgi 2,496 wrote on August 10 2008, 12:30 pm

almost perfect except the last part of the verse sounded wrong.
it's actually
G|----------------------------------|
D|-8-5-5-8-5-5-8-8------------------|
A|-----------------6-6-6-6-6-6-6-6--| x3
D|----------------------------------|

G|----------------------------------|
D|----------------------------------|
A|----------------------------------|
D|8-8-8-8-8-8-8-8-8-8-8-8-8-8-8-8-8-|

0 reply
chrisjenks 2,376 wrote on August 10 2008, 02:15 pm

whoops, that was a typo. cheers for pointing it out. i think it might be an octave higher than you wrote though

0 reply
spiff-corgi 2,496 wrote on August 11 2008, 05:45 pm

ok. that was just my immediate assumption. with the correction i'll rate it 5 stars

I want to post or [tab]
guest
You may want to rate the tab now too:
select rating
Please do not post tabs as comments. Select "correction" instead!