Oops, an error
Loading. Please wait.

Last Christmas tab

26,874 views 18 this week
5 commentsread comments
1 2 3 4 5
x 15
add to favorites
×
Save as Personal and add changes to this tab that will be seen only by you. Learn more ›
×
You can save this tab as Personal to edit and correct it or add notes. All changes will be seen only by you. Learn more »
launch autoscroll
font size
0
reset
how to read this tab
guitar tuner
edit
Autoscroll
slow
fast
+/-
esc
set tempo
stop
Author
                             Last Christmas - Jimmy Eat World
-------------------------------------------------------------------------------
Tabbed by:Ace

Tuning: Standard                                  
    Intro                                         (0:08)
|------------|-----------|-----------|------------|----------------|
|-2-3-5--5-3-|-3-5-5-7-3-|-3-2-3-2-3-|-3-2-3-2-0--|0-7-5--5-7-8-7-5|
|------------|-----------|-----------|------------|----------------|
|------------|-----------|-----------|------------|----------------|
|------------|-----------|-----------|------------|----------------|
|------------|-----------|-----------|------------|----------------|
 (0:11)
|------------------------------------------------------------------|
|-2-2-3-2-2--3-2---------------------------------------------------|
|----------------2-------------------------------------------------|
|------------------------------------------------------------------|
|------------------------------------------------------------------|
|------------------------------------------------------------------|
    (0:16)                                        (0:23)
|------------|-----------|-----------|------------|----------------|
|----5-5-3---|-3-5-5-7-3-|-3-2-3-2-3-|-3-2-3-2-0--|0-7-5--5-7-8-7-5|
|------------|-----------|-----------|------------|----------------|
|------------|-----------|-----------|------------|----------------|
|------------|-----------|-----------|------------|----------------|
|------------|-----------|-----------|------------|----------------|
 (0:27)
|------------------------------------------------------------------|
|-2-2-3-2-2--3-2---------------------------------------------------|
|----------------2-------------------------------------------------|
|------------------------------------------------------------------|
|------------------------------------------------------------------|
|------------------------------------------------------------------|


    Chorus (2x):
D
Last Christmas I gave you my heart
Bm
But the very next day you gave it away
Em
This year to save me from tears
A
I'll give it to someone special

SOLO (1:00)
|-10----9-7-------10-9-10-7---10-9-10------------------------------|
|-----------7-------------------------10---------------------------|
|------------------------------------------------------------------|
|------------------------------------------------------------------|
|------------------------------------------------------------------|
|------------------------------------------------------------------|

   (High Synth Part played second time through solo) (1:17)
|-14-12-14-17-14-------12-14-17-14----12---------------------------|
|------------------------------------------------------------------|
|------------------------------------------------------------------|
|------------------------------------------------------------------|
|------------------------------------------------------------------|
|------------------------------------------------------------------|


  Chorus (2x)

  Second Part of Intro Again

  Verse (2x):
D
A face on a lover with a fire in his heart
Bm
A man under cover but you tore me apart
Em
Now I've found a real love (now I've found)
A
You'll never fool me again

D
A face on a lover with a fire in his heart
Bm
A man under cover but you tore him apart
Em
Maybe next year I'll give it to someone
A
I'll give it to someone special

   Outtro (3:35)
Part 1:
|-12-14-12-14-17-14--12-14-12-14-17-14--12-14-17-14----------------|
|------------------------------------------------------------------|
|------------------------------------------------------------------|
|------------------------------------------------------------------|
|------------------------------------------------------------------|
|------------------------------------------------------------------|

Part 2:
|-10----9-7-------10-9-10-7---10-9-10------------------------------|
|-----------7-------------------------10---------------------------|
|------------------------------------------------------------------|
|------------------------------------------------------------------|
|------------------------------------------------------------------|
|------------------------------------------------------------------|

            
            
Suggest correction
Creating personal tab
Creating personal tab
You can edit any tab online and save it as your Personal.

You can edit, replace or remove any tab part or add personal notes – all changes will be seen only by you.

Personal tabs can be accessed anytime from any device, even offline.
Learn more »
comments
print report bad tab
5 comments total. Showing first comments.
0 reply
x2yourbestbet2x 10 Dec 02, 2005 05:24 AM

omg! ive been looking everywhere for a decent tab to this rockin Jimmy Eat World cover!! Thank you Ace. You are my hero!!!!!!!

0 reply
blacksabretooth 10 Dec 02, 2005 05:50 AM

This is an awsome track and thank you soo much for this tab, it rocks!!!

0 reply
-stratomaster- 10 Jul 16, 2008 06:01 AM

I think the last note in the 3rd bar should be a D, not a C# ie 3rd fret, not second, and I'm not so sure about that Em but otherwise good tab.

guest
You may want to rate the tab now too:
select rating
Wanna post a correction for this tab? Suggest correction