Oops, an error
Loading. Please wait.

Let It Happen Bass Tab

version 1
version 1

Whole song

Interactive

2,449 views 1 this week
1 commentread comment
1 2 3 4 5
1 last vote to show rating
add to favorites
launch autoscroll
font size
0
reset
guitar tuner
Autoscroll
slow
fast
+/-
esc
set tempo
stop
Help us to improve Ultimate-Guitar.com Take our survey!
×
Author
Jimmy Eat World
Chase The Light
Let It Happen

bass starts at 0:11

Main Riff – played pretty much all the way through

G|------------------------------------------------------------------|
D|------------------------------------------------------------------| 
A|-------------------------------------------------1-1-1-1-1-1-1-1--|
D|-5-5-5-5-5-5-5-5-3-3-3-3-3-3-3-3-1-1-1-1-1-1-1-1------------------|

Variation 1 (2:27)

G|------------------------------------------------------------------|
D|------------------------------------------------------------------| 
A|------------------------------------------------------------------|
D|-5-5-5-5-5-5-5-5-3-3-3-3-3-3-3-3-1-1-1-1-1-1-1-1-8\---------------|


Variation 2 (2:39)

G|------------------------------------------------------------------|
D|------------------------------------------------------------------| 
A|-------------------------------------------------1-1-1-1-1/3\1~---|
D|-5-5-5-5-5-5-5-5-3-3-3-3-3-3-3-3-1-1-1-1-1-1-1-1------------------|


End note 

G|----|
D|----| 
A|----|
D|-5~-|

There may be other variations so just tell where they are and I’ll make some corrections
Suggest correction
Give kudos to tab author, rate the tab!
1 2 3 4 5
comments
print report bad tab
1 comment total.
0 reply
rubberduck22222 142 Jul 15, 2009 01:21 PM

i love this song thanks for posting this tab!!

guest
You may want to rate the tab now too:
select rating
Wanna post a correction for this tab? Suggest correction