Oops, an error
Loading. Please wait.

My Sundown Tab

version 8
version 8
188 views 1 this week
no commentswrite comment
1 2 3 4 5
please rate
add to favorites
launch autoscroll
font size
0
reset
how to read this tab
guitar tuner
Autoscroll
slow
fast
+/-
esc
set tempo
stop
Help us to improve Ultimate-Guitar.com Take our survey!
×
Author
Difficulty
Tuning
novice
D# G# C# F# A# D#
Originally tabbed By: Travis Ralph
I changed tab to sound exactly like in song. Corrected Main guitar riff, and added 
tuning information.

Tune guitar half step down: Eb2, G#2, C#3, F#3, Bb3, Eb4

Guitar 1 (Repeats throughout whole song)
Eb4 ------------------------------------------------------------------------------|
Bb3 ------------------------------------------------------------------------------|
F#3 ------------------------------------------------------------------------------|
C#3 -----------------4-4-4-4-4-4-4-4----------------------------------------------|
G#2 -2-2-2-2-2-2-2-2-2-2-2-2-2-2-2-2-7-7-7-7-7-7-7-7-7-7-7-7-7-7-7-7--------------|
Eb2 -0-0-0-0-0-0-0-0-----------------5-5-5-5-5-5-5-5-5-5-5-5-5-5-5-5--------------|


Guitar 2 (Arranged from piano)
Eb4 ------------------------------------------------------------------------------|
Bb3 ------------------------------------------------------------------------------|
F#3 ----------------------------11-11-11-11-11-------9-9-9-9-9-------9-9-9-9-9-9--|
C#3 -------9--9--9--9--9--------9--9--9--9--9--------7-7-7-7-7-------7-7-7-7-7-7--|
G#2 -------7--7--7--7--7----------------------------------------------------------|
Eb2 ------------------------------------------------------------------------------|

Guitar 2 (Chorus) Repeat 8x
Eb4 -------------7---|
Bb3 -5-4-5-7-5-------|
F#3 -----------------|
C#3 -----------------|
G#2 -----------------|
Eb2 -----------------|

Guitar 2 (Bridge)
Eb4 ------------------------------------------------------------------------------|
Bb3 ------------------------------------------------------------------------------|
F#3 -11-11-11-13-9-9-------8-8-8-9-6-6--------4-4-4-4-4-4-------4-4-4-4-4-4-------|
C#3 ------------------------------------------------------------------------------|
G#2 ------------------------------------------------------------------------------|
Eb2 ------------------------------------------------------------------------------|

End Chord
Eb4 ---------|
Bb3 ---------|
F#3 ---------|
C#3 -2-------|
G#2 -2-------|
Eb2 -0-------|
Suggest correction
Give kudos to tab author, rate the tab!
1 2 3 4 5
comments
print report bad tab
guest
You may want to rate the tab now too:
select rating
Please do not post tabs as comments. Select "correction" instead!