Oops, an error
Loading. Please wait.

Night Drive Tab

version 1
version 1

Whole song

7,309 views 6 this week
2 commentsread comments
1 2 3 4 5
x 3
add to favorites
launch autoscroll
font size
0
reset
how to read this tab
guitar tuner
×
Best way to learn
"Night Drive"
Autoscroll
slow
fast
+/-
esc
set tempo
stop
---------------------------------------------------------------------------
                             Night Drive - Jimmy Eat World
----------------------------------------------------------------------------
Tabbed by: Wade Abbott
Email: wadeab@hotmail.com

Tuning: Half-Step down (Eb), Drop D

Intro/Verse/PreChorus/Chorus (Played throughout song.)
e|-------------------------------------------------------------------------|
B|-------------------------------------------------------------------------|
G|----------2--------------------------------------------------------------|
D|-2--5--0--2--------------------------------------------------------------|
A|-2--5--0--0--------------------------------------------------------------|
E|-2--5--0-----------------------------------------------------------------|
Bells or Piano over the chorus.
e|---9-10-9-10-9-7-5/7----9-10-9-10-9-7-7/5--------------------------------|
B|-------------------------------------------------------------------------|
G|-------------------------------------------------------------------------|
D|-------------------------------------------------------------------------|
A|-------------------------------------------------------------------------|
E|-------------------------------------------------------------------------|

That's pretty much all the song.


| /  slide up
| \  slide down
============================================================================
Suggest correction
Give kudos to tab author, rate the tab!
1 2 3 4 5
comments
print report bad tab
2 comments total.
0 reply
dariog 10 Dec 08, 2004 07:00 PM

there is no need to play this in drop-d flat.... just play the lowest chord as

|------------------- |----6------------------------
|---4--------------- |----6------------------------
|---6--------------- and the 'a' as |----6------------------------
|---6--------------- |----------------------------

in normal drop-d

0 reply
SidSidHurra 40 Nov 23, 2005 04:05 AM

Im sorry but this version doesnt sound right to me.
In the demo and even in the final version he´s switching the waistbands (im sorry but this is the best translation for the german "Gitarrenbund" i´ve found in 4 (!!!) dictionarys) 2 Times. I would like to submit my version of this song but the admins doesent permit it. Ill wrote it down here:

e|------------------------------------------------------------|
B|------------------------------------------------------------|
G|---------------------5--------------------------------------|
D|----3----6-----6-----6--------------------------------------|
A|----1----4-----6-----6--------------------------------------|
E|----1----4-----4-----4--------------------------------------|

I think thats correct.

guest
You may want to rate the tab now too:
select rating
Wanna post a correction for this tab? Suggest correction