Oops, an error
Loading. Please wait.

Open Bar Reception Bass Tab

132 views 1 this week
no commentswrite comment
1 2 3 4 5
3 more votes to show rating
add to favorites
launch autoscroll
font size
0
reset
guitar tuner
Autoscroll
slow
fast
+/-
esc
set tempo
stop
Help us to improve Ultimate-Guitar.com Take our survey!
×
Author
Artist: Jimmy Eat world
Album: Chase This Light
Song: Open Bar Reception

Verse x3

G|----------------------------------|
D|-----------------5-5-55555-5-5555-| 
A|-6-6-66666-6-6666-----------------|
E|----------------------------------|

G|----------------------------------|
D|----------------------------------| 
A|\3-3-33333-3-33336-6-66666-6-6666-|
E|----------------------------------|

G|----------------------------------|
D|----------------------------------| 
A|-----------------3-3-33333-3-3333-|
E|-4-4-44444-4-4444-----------------|

G|----------------------------------|
D|----------------------------------| 
A|----------------------------------|
E|-6-6-66666-6-66664-4-44444-4-4444-|

Chorus 1:03 x2

G|----------------------------------|
D|----------------------------------| 
A|-6-6-66666-6-66663-3-33333-3-3333-|
E|----------------------------------|

G|----------------------------------|
D|----------------------------------| 
A|----------------------------------|
E|-6-6-66666-6-66664-4-44444-4-4444-|

Verse x1

G|----------------------------------|
D|-----------------5-5-55555-5-5555-| 
A|-6-6-66666-6-6666-----------------|
E|----------------------------------|

G|----------------------------------|
D|----------------------------------| 
A|\3-3-33333-3-33336-6-66666-6-6666-|
E|----------------------------------|

G|----------------------------------|
D|----------------------------------| 
A|-----------------3-3-33333-3-3333-|
E|-4-4-44444-4-4444-----------------|

G|----------------------------------|
D|----------------------------------| 
A|----------------------------------|
E|-6-6-66666-6-66664-4-44444-4-4444-|

Chorus 1:46 x2

G|----------------------------------|
D|----------------------------------| 
A|-6-6-66666-6-66663-3-33333-3-3333-|
E|----------------------------------|

G|----------------------------------|
D|----------------------------------| 
A|----------------------------------|
E|-6-6-66666-6-66664-4-44444-4-4444-|

Bridge: 2:07

G|----------------------------------|
D|----------------------------------| 
A|----------------------------------|
E|-33333-33-33-333344444-44-44-4444-|

G|----------------------------------|
D|----------------------------------| 
A|----------------------------------|
E|-66666-66-66-666688888-88-88-8888-|

G|----------------------------------|
D|----------------------------------| 
A|----------------------------------|
E|-33333-33-33-333344444-44-44-4444-|

G|----------------------------------|
D|----------------------------------| 
A|----------------------------------|
E|-66666-66-66-666688888-88-88-8888-|

G|----------------------------------|
D|----------------------------------| 
A|----------------------------------|
E|-3~-------------------------------|

Pause

2:40

G|----------------------------------|
D|----------------------------------| 
A|----------------------------------|
E|-4-4-4-4-4-4-4-4-8-8-8-8-8-8-8-8--|

G|----------------------------------|
D|----------------------------------| 
A|----------------------------------|
E|-6-6-6-6-6-6-6-6-4-4-4-4-4-4-4-4--|

Chorus 2:51 x4

G|----------------------------------|
D|----------------------------------| 
A|-6-6-66666-6-66663-3-33333-3-3333-|
E|----------------------------------|

G|----------------------------------|
D|----------------------------------| 
A|----------------------------------|
E|-6-6-66666-6-66664-4-44444-4-4444-|

Bridge: 3:33

G|----------------------------------|
D|----------------------------------| 
A|----------------------------------|
E|-33333-33-33-333344444-44-44-4444-|

G|----------------------------------|
D|----------------------------------| 
A|----------------------------------|
E|-66666-66-66-666688888-88-88-8888-|

End note:

G|----------------------------------|
D|----------------------------------| 
A|-6~-------------------------------|
E|----------------------------------|
Suggest correction
Give kudos to tab author, rate the tab!
1 2 3 4 5
comments
print report bad tab
guest
You may want to rate the tab now too:
select rating
Wanna post a correction for this tab? Suggest correction