Oops, an error
Loading. Please wait.

Polaris tab

version 4
version 4

Whole song

Interactive

1,872 views 1 this week
no commentswrite comment
1 2 3 4 5
2 more votes to show rating
add to favorites
×
Save as Personal and add changes to this tab that will be seen only by you. Learn more ›
×
You can save this tab as Personal to edit and correct it or add notes. All changes will be seen only by you. Learn more »
launch autoscroll
font size
0
reset
how to read this tab
guitar tuner
edit
Autoscroll
slow
fast
+/-
esc
set tempo
stop
Jimmy Eat World - Polaris

My favorite song from the CD - very unique.


Tuning: Guitar 1 - Drop D 1/2 step down Capo II
        Guitar 2 - Open E tuning down 1/2 step Capo IV (see Guitar 2 parts for exact tuning)
        Guitar 3 and 4 - Standard tuning 1/2 step down

Guitar 1 - Acoustic
Guitar 2 - Electric
Guitar 3 and 4 - Electric


INTRO
Part 1
Guitar 1
eb|------------------|
Bb|------------------|
Gb|------------------|
Db|------------------|
Ab|0-(40x)-----------|
Db|9-----------------|

Guitar 2
eb|--0--0-----0--0----------------------|
Bb|--------------------3--3-----3--3----|
G |-1--1--1--1--1--1--1--1--1--1--1--1--|
Eb|3--3--3--3--3--3--3--3--3--3--3--3---|
Bb|-------------------------------------|
Eb|-------------------------------------|

INTRO
Part 2
Guitar 2
eb|--0--0-----0--0--------------------------------------3---1---0----------|
Bb|-------------------3--3-----3--3-----1--1-----1--1------1---1---1-3--1--|
G |-1--1--1--1--1--1-1--1--1--1--1--1--1--1--1--1--1--1--1--1---1-----1--1-|
Eb|3--3--3--3--3--3-3--3--3--3--3--3--3--3--3--3--3--3--3-----------3--3---|
Bb|------------------------------------------------------------------------|
Eb|------------------------------------------------------------------------|

Guitar 1
eb|------------------------------------------------------------------------|
Bb|------------------------------------------------------------------------|
Gb|------------------------------------------------------------------------|
Db|------------------------------------------------------------------------|
Ab|--(16x)---------(16x)-------------(16x)----------(16x)------------------|
Db|9--------------7-----------------5--------------0-----------------------|

INTRO
Part 3
Guitar 2 plays INTRO - Part 2
Guitar 1 - distortion and delay
eb|---------------------------------------------------------|
Bb|12------------12--------------10------------9------------|
G |---13-------------11--------------9-------------9--------|
Eb|------------------------9--------------7--------------6--|
Bb|-------11------------------------------------------------|
Eb|---------------------------------------------------------|

VERSE
Part 1
Guitar 2 - Plays INTRO - Part 2 one time

VERSE
Part 2
Guitar 1 - plays INTRO - Part 3 riff
Guitar 2 - continues to play INTRO - Part 2 riff

**at 1:21, Guitar 3 comes in with the following
eb|-0-----------------------------------------------|
Bb|-0-----------------------------------------------|
Gb|-9-----------------------------------------------|
Db|-9--(9x)-----------------------------------------|
Ab|-7-----------------------------------------------|
Eb|-------------------------------------------------|

CHORUS
Both Guitars - 2x
Guitar 1
eb|----------------------------------------------------------------------|
Bb|----------------------------------------------------------------------|
Gb|----------------------------------------------------------------------|
Db|9---------------7-----------------5-----------------------------------|
Ab|9-(8x)----------7-(8x)------------5-(16x)-----------------------------|
Eb|9---------------7-----------------5-----------------------------------|

Guitar 4
eb|----1212----1212----1212-1414-1212----1212----1212-----1212-1414-1212-|
Bb|1212----1212----1212--------------1212----1212----1212----------------|
Gb|----------------------------------------------------------------------|
Db|----------------------------------------------------------------------|
Ab|----------------------------------------------------------------------|
Eb|----------------------------------------------------------------------|

VERSE
CHORUS

BRIDGE
Guitar 3
eb|----------------------------------------------------------------|
Bb|----------------------------------------------------------------|
Gb|----------------------------------------------------------------|
Db|4-----7-----11----9-----4-----7-----11-------18------------18<<-|
Ab|x-16x-x-16x-x-16x-x-16x-x-16x-x-16x-x--8x----x-------------x-<<-|
Eb|2-----5-----9-----7-----2-----5-----9-----2ss16------------16<<-|
                          tremolo pick here -----^

Guitar 1
eb|----------------------------------------------------------------|
Bb|----------------------------------------------------------------|
Gb|----------------------------------------------------------------|
Db|2-----5-----9-----7-----2-----5-----9-----7-----2----5----7-7-9-|
Ab|2-16x-5-16x-9-16x-7-16x-2-16x-5-16x-9-16x-7-16x-2-8x-5-8x-7-7-9-|
Eb|2-----5-----9-----7-----2-----5-----9-----7-----2----5----7-7-9-|

CHORUS - 4x

OUTRO
Guitar 2
eb|---0---0--------------------------------0----0--------------------------|
Bb|-------------3--3----1--1-----1--1---------------------3----3------1----|
G |-1---1---1--1--1--1-1--1--1--1--1--1---1----1----1---1----1----1--1-----|
Eb|3---3---3--3--3--3-3--3--3--3--3--3--3----3----3---3----3----3---3------|
Bb|------------------------------------------------------------------------|
Eb|------------------------------------------------------------------------|

Guitar 3
eb|------------------------------------------------------------------------|
Bb|--7--7--7--7--7--7--7---7--7--7--7----7----7----7----7----7-------------|
Gb|---9--9--9--9--9--9--9---9--9--9---9----9----9----9----9----9-----2--2-1|
Db|9---9--9--9--9--9--9--9---9--9--9----9----9----9----9----9------2---2---|
Ab|--------------------------------------------------------------0---------|
Eb|------------------------------------------------------------------------|

            
            
Suggest correction
Creating personal tab
Creating personal tab
You can edit any tab online and save it as your Personal.

You can edit, replace or remove any tab part or add personal notes – all changes will be seen only by you.

Personal tabs can be accessed anytime from any device, even offline.
Learn more »
Give kudos to tab author, rate the tab!
1 2 3 4 5
comments
print report bad tab
guest
You may want to rate the tab now too:
select rating
Wanna post a correction for this tab? Suggest correction