Oops, an error
Loading. Please wait.

Roller Queen tab

version 3
version 3

Whole song

62 views 1 this week
no commentswrite comment
1 2 3 4 5
3 more votes to show rating
add to favorites
×
Save as Personal and add changes to this tab that will be seen only by you. Learn more ›
×
You can save this tab as Personal to edit and correct it or add notes. All changes will be seen only by you. Learn more »
launch autoscroll
font size
0
reset
how to read this tab
guitar tuner
edit
Autoscroll
slow
fast
+/-
esc
set tempo
stop
Jimmy Eat World - Roller Queen

Open E

e |--
B |--
G#|-- (tuned half a step-up)
E |-- (tuned a whole step-up)
B |-- (tuned a whole step-up)
E |--

(7) - natural harmonic

Jim Adkins (Guitar 1)

Intro/verse (0:07)
e |-------------------|--------------------------------| 
B |-------------------|-----------(7)------------------|
G#|-------------------|-------------------(7)----------| [x6]
E |-------------------|---------------(5)--------------|
B |--0-0-0-0-0-0-0-0--|--0-0-0-0--------------0-0-0-0--|
E |--7-7-7-7-0-0-0-0--|--0-2/4-4--------------0-0-0-0--|
     D D D D D D D D     D D   D              D D D D

--------------------------------------------------------------------

Chorus (1:02)
e |--0-----------------------|--------------------------|
B |--0-----------------------|--------------------------|
G#|--7--7--7--7--7--7--7--7--|--7--7--7--7--7--7--7--7--| [x3]
E |--4--4--4--4--0--0--0--0--|--x--x--x--x--0--0--0--0--|
B |--4--4--4--4--0--0--0--0--|--7--7--7--7--0--0--0--0--|
E |--4--4--4--4--0--0--0--0--|--7--7--7--7--0--0--0--0--|
     U  D  D  D  D  D  D  D     D  D  D  D  D  D  D  D

(1:30)
e |--------------------------|--------------------------|
B |--------------------------|--------------------------|
G#|--7--7--7--7--7--7--7--7--|--7--7--7--7--7--7--7--7--|
E |--4--4--4--4--0--0--0--0--|--x--x--x--x--0--0--0--0--|
B |--4--4--4--4--0--0--0--0--|--7--7--7--7--0--0--0--0--|
E |--4--4--4--4--0--0--0--0--|--7--7--7--7--0--0--0--0--|
     D  D  D  D  D  D  D  D     D  D  D  D  D  D  D  D

(1:40)
e |--------------------------|----------------------0---0--|
B |--------------------------|----------------------0---0--|
G#|--7--7--7--7--7--7--7--7--|--7--7--7--7--7--7--7-7-7-7--|
E |--9--9--9--9--0--0--0--0--|--9--9--9--9--0--0--0---0----|
B |--9--9--9--9--0--0--0--0--|--9--9--9--9--0--0--0---0----|
E |--9--9--9--9--0--0--0--0--|--9--9--9--9--0--0--0---0----|
     D  D  D  D  D  D  D  D     D  D  D  D  D  D  D U D U

e |----------------------0---0--|--------------------------|
B |----------------------0---0--|--------------------------|
G#|--7--7--7--7--7--7--7-7-7-7--|--7--7--7--7--7--7--7--7--|
E |--9--9--9--9--0--0--0--0-----|--9--9--9--9--0--0--0--0--|
B |--9--9--9--9--0--0--0--0-----|--9--9--9--9--0--0--0--0--|
E |--9--9--9--9--0--0--0--0-----|--9--9--9--9--0--0--0--0--|
     D  D  D  D  D  D  D U D U     D  D  D  D  D  D  D  D

--------------------------------------------------------------------

Intro/verse (static) (1:58)
e |-------------------|--------------------------------| 
B |-------------------|-----------(7)------------------|
G#|-------------------|-------------------(7)----------|
E |-------------------|---------------(5)--------------|
B |--0-0-0-0-0-0-0-0--|-----------------------0-0-0-0--|
E |--7-7-7-7-0-0-0-0--|-----------------------0-0-0-0--|
     D D D D D D D D                          D D D D
                                                  ...static...
(2:07)
e |-------------------|--------------------------------| 
B |-------------------|-----------(7)------------------|
G#|-------------------|-------------------(7)----------|
E |-------------------|---------------(5)--------------|
B |--0-0-0-0-0-0-0-0--|--0-0-0-0--------------0-0-0-0--|
E |--7-7-7-7-0-0-0-0--|--0-2/4-4--------------0-0-0-0--|
     D D D D D D D D     D D   D              D D D D
   ..........................static.........................

--------------------------------------------------------------------

Intro/verse (2:16)
e |-------------------|--------------------------------| 
B |-------------------|-----------(7)------------------|
G#|-------------------|-------------------(7)----------| [x3]
E |-------------------|---------------(5)--------------|
B |--0-0-0-0-0-0-0-0--|--0-0-0-0--------------0-0-0-0--|
E |--7-7-7-7-0-0-0-0--|--0-2/4-4--------------0-0-0-0--|
     D D D D D D D D     D D   D              D D D D

--------------------------------------------------------------------

Intro/verse (2:44)
e |-------------------|--------------------------------| 
B |-------------------|--------------------------------|
G#|-------------------|-----------(7)-----(7)----------| (slight variation with
E |-------------------|---------------(5)--------------|     the harmonics)
B |--0-0-0-0-0-0-0-0--|--0-0-0-0--------------0-0-0-0--|
E |--7-7-7-7-0-0-0-0--|--0-2/4-4--------------0-0-0-0--|
     D D D D D D D D     D D   D              D D D D

--------------------------------------------------------------------

Chorus (2:53)
e |--0-----------------------|--------------------------|
B |--0-----------------------|--------------------------|
G#|--7--7--7--7--7--7--7--7--|--7--7--7--7--7--7--7--7--| [x4]
E |--4--4--4--4--0--0--0--0--|--x--x--x--x--0--0--0--0--|
B |--4--4--4--4--0--0--0--0--|--7--7--7--7--0--0--0--0--|
E |--4--4--4--4--0--0--0--0--|--7--7--7--7--0--0--0--0--|
     U  D  D  D  D  D  D  D     D  D  D  D  D  D  D  D

(3:30)
e |----------------------0---0--|--------------------------|
B |----------------------0---0--|--------------------------|
G#|--7--7--7--7--7--7--7-7-7-7--|--7--7--7--7--7--7--7--7--| [x2]
E |--9--9--9--9--0--0--0--0-----|--9--9--9--9--0--0--0--0--|
B |--9--9--9--9--0--0--0--0-----|--9--9--9--9--0--0--0--0--|
E |--9--9--9--9--0--0--0--0-----|--9--9--9--9--0--0--0--0--|
     D  D  D  D  D  D  D U D U     D  D  D  D  D  D  D  D

--------------------------------------------------------------------

Break/Ending (3:48)
e |---------------------------|--------------------------|
B |---------------------------|--------------------------|
G#|---------------------------|--------------------------|
E |----0----0--------0---0----|------2-0--------0-----0--|
B |------2-----------------5--|----------4-0------0------|
E |--2---------2/4-5---5------|----0----------0-----0----|

(3:58)
e |-----------------------|--------------------------|
B |-----------------------|--------------------------|
G#|-----------------------|--------------------------|
E |------0---------0------|------2-0--------0-----0--|
B |----2---2-----5---5----|----------4-0------0------|
E |--2---------5----------|--5-0----------0-----0----|

(4:07)
e |-------------------------|--------------------------|
B |-------------------------|--------------------------|
G#|-------------------------|--------------------------|
E |------0-0-------0---0----|------2-0--------0-----0--|
B |----2-----------------5--|----------4-0------0------|
E |--2-------2/4-5---5------|--5-0----------0-----0----|

(4:16)
e |-------------------------|--------------------------|
B |-------------------------|--------------------------|
G#|-------------------------|--------------------------| [x7]
E |------0---------0---0----|------2-0--------0-----0--|
B |----2---2-------------5--|----------4-0------0------|
E |--2-------2/4-5---5------|--5-0----------0-----0----|

--------------------------------------------------------------------

(5:21)
e |-----------------------|--------------------------|
B |-----------------------|--------------------------|
G#|-----------------------|--------------------------|
E |------0---------0------|------0-------------------|
B |----2---------5--------|----0---------------------|
E |--2---------5----------|--0------------0----------|

(5:30)
e |-----------------------|--------------------------|
B |-----------------------|--------------------------|
G#|-----------------------|--------------------------|
E |------0---------0------|--------------------------|
B |----2---------5--------|----0------------0--------|
E |--2---------5----------|--0------------0----------|

(5:39)
e |-----------------------|--------------------------|
B |-----------------------|--------------------------|
G#|-----------------------|--------------------------|
E |------0---------0------|--------------------------|
B |----2---------5--------|----0---------------------|
E |--2---------5----------|--0------------0----------|

(5:48)
e |-----------------------|--------------------------|
B |-----------------------|--------------------------|
G#|-----------------------|--------------------------|
E |------0---------0------|--------------------------|
B |----2---------5--------|----0------------0--------|
E |--2---------5----------|--0------------0----------|
(5:58)
e |-----------------------|--------------------------|
B |-----------------------|--------------------------|
G#|-----------------------|--------------------------| [x3]
E |-----------------------|--------------------------|
B |-----------------------|--------------------------|
E |--2---------5----------|--0------------0----------|
                                         gradually fade out...

--------------------------------------------------------------------
--------------------------------------------------------------------

Tom Linton (Guitar 2)

Intro/Verse (0:12)
e |-------------------|----------------------------------| 
B |-------------------|-----------(7)--------------------|           (7) - natural harmonic
G#|-------------------|-------------------(7)------------| [x6]
E |-------------------|---------------(5)-----(7)--------|
B |-------------------|----------------------------------|
E |-------------------|----------------------------------|

--------------------------------------------------------------------

Chorus (1:02)
e |--0-----------------------|--------------------------|
B |--0-----------------------|--------------------------|           (not sure if he plays
G#|--7-----------------------|--------------------------| [x2]        more in the beginning
E |--4-----------------------|--------------------------|                 of the chorus)
B |--4-----------------------|--------------------------|
E |--4-----------------------|--------------------------|
     U

(1:21)
E |----2---0--------|
B |------4---4---4--|
G#|--3---------3----| [x8]
E |-----------------|
B |-----------------|
E |-----------------|

(1:39)                               (1:43)
E |------0-----0-----0-----0------|  E |--0-----0-----0-----0------|
B |----4---4-----4-----4-----4----|  B |----4-----4-----4-----4----|
G#|--3-------3-----3-----3-----3--|  G#|------3-----3-----3-----3--| [x4]
E |-------------------------------|  E |---------------------------|
B |-------------------------------|  B |---------------------------|
E |-------------------------------|  E |---------------------------|

--------------------------------------------------------------------

Intro/verse (2:03)
e |-------------------|----------------------------------| 
B |-------------------|-----------(7)--------------------|
G#|-------------------|-------------------(7)------------| [x2]
E |-------------------|---------------(5)-----(7)--------|
B |-------------------|----------------------------------|
E |-------------------|----------------------------------|
..........................static.........................

--------------------------------------------------------------------

(2:16)
e |-------------------|----------------------------------| 
B |-------------------|-----------(7)--------------------|
G#|-------------------|-------------------(7)------------| [x3]
E |-------------------|---------------(5)-----(7)--------|
B |-------------------|----------------------------------|
E |-------------------|----------------------------------|

(2:49)
e |-------------------|----------------------------------| 
B |-------------------|----------------------------------|
G#|-------------------|-----------(7)-----(7)------------|   (slight variation with
E |-------------------|---------------(5)-----(7)--------|        the harmonics)
B |-------------------|----------------------------------|
E |-------------------|----------------------------------|

--------------------------------------------------------------------

Guitar 2 - Chorus (2:53)
e |--0-----------------------|--------------------------|
B |--0-----------------------|--------------------------|
G#|--7-----------------------|--------------------------| [x2]
E |--4-----------------------|--------------------------|
B |--4-----------------------|--------------------------|
E |--4-----------------------|--------------------------|
     U

(3:12)
E |----2---0--------|
B |------4---4---4--|
G#|--3---------3----| [x8]
E |-----------------|
B |-----------------|
E |-----------------|

(3:30)                               (3:34)
E |------0-----0-----0-----0------|  E |--0-----0-----0-----0------|
B |----4---4-----4-----4-----4----|  B |----4-----4-----4-----4----|
G#|--3-------3-----3-----3-----3--|  G#|------3-----3-----3-----3--| [x4]
E |-------------------------------|  E |---------------------------|
B |-------------------------------|  B |---------------------------|
E |-------------------------------|  E |---------------------------|

------------------------------------------------------------------------------

Break/Ending (3:54)
e |-------------------|----------------------------------| 
B |-------------------|-----------(7)--------------------|
G#|-------------------|-------------------(7)------------| [x18]  Pretty much play
E |-------------------|---------------(5)-----(7)--------|         until the end.
B |-------------------|----------------------------------|
E |-------------------|----------------------------------|

------------------------------------------------------------------------------
------------------------------------------------------------------------------
------------------------------------------------------------------------------

Guitar 3 (4:26)
e |--2--2--2--0--0--0--0--0--|--2--4--2--0--2--4--2--0--|
B |--5--5--5--5--5--5--5--5--|--5--5--5--5--5--5--5--5--|
G#|--3--3--3--3--3--3--3--3--|--3--3--3--3--3--3--3--3--|
D |--0--0--0--0--0--0--0--0--|--0--0--0--0--0--0--0--0--|
B |--------------------------|--------------------------|
E |--------------------------|--------------------------|

e |----5-----5-----5-----5------|
B |------0-----0-----0-----0----|
G#|--3-----3-----3-----3-----3--|
E |-----------------------------|
B |-----------------------------|
E |-----------------------------|

Repeat x6

(5:21)
e |----5-----5-----5-----5------|
B |------0-----0-----0-----0----|
G#|--3-----3-----3-----3-----3--|  Repeat until it
E |-----------------------------|     fades out....
B |-----------------------------|
E |-----------------------------|

And that's it! I believe the majority of the tab's correct, just a few odd parts I'm not so sure about.

Hope that helps!


            
            
Suggest correction
Creating personal tab
Creating personal tab
You can edit any tab online and save it as your Personal.

You can edit, replace or remove any tab part or add personal notes – all changes will be seen only by you.

Personal tabs can be accessed anytime from any device, even offline.
Learn more »
Give kudos to tab author, rate the tab!
1 2 3 4 5
comments
print report bad tab
guest
You may want to rate the tab now too:
select rating
Wanna post a correction for this tab? Suggest correction