Oops, an error
Loading. Please wait.

Sure And Certain solo tab

592 views 12 this week
1 commentread comment
1 2 3 4 5
2 more votes to show rating
add to favorites
×
Save as Personal and add changes to this tab that will be seen only by you. Learn more ›
×
You can save this tab as Personal to edit and correct it or add notes. All changes will be seen only by you. Learn more »
launch autoscroll
font size
0
reset
how to read this tab
guitar tuner
edit
Autoscroll
slow
fast
+/-
esc
set tempo
stop
Author
Difficulty
[Interlude]
This goes between verses and choruses
e|---------------|
B|---------------|
G|---------------|
D|--2--4--5--7---|
A|---------------|
E|---------------|


[Bridge]
(Continues to loop)
e|--------------|---------------2/3--|--------------7--|
B|--------------|--------------------|-----------------|
G|--9--7--5--4--|--9--7--5--4--------|--9--7--5--4-----|
D|--------------|--------------------|-----------------|
A|--------------|--------------------|-----------------|
E|--------------|--------------------|-----------------|

(background for the bridge- guitar II)- played once directly after first bar
e|-------------|
B|-------------|
G|-------------|
D|--7--5--3----|
A|-------------|
E|-------------|

La la la's for the bridge- starts after the bridge one loop 
e|-----------------------------|----------------------------------------------|
B|-----------------------------|--------------------------12--15--12----------|
G|--11--12--14--9--9--9--7/11--|--11--12--14--12--12--12--------------14------|
D|-----------------------------|----------------------------------------------|
A|-----------------------------|----------------------------------------------|
E|-----------------------------|----------------------------------------------|



************************************

| /  Slide up

************************************

            
            
Suggest correction
Creating personal tab
Creating personal tab
You can edit any tab online and save it as your Personal.

You can edit, replace or remove any tab part or add personal notes – all changes will be seen only by you.

Personal tabs can be accessed anytime from any device, even offline.
Learn more »
Give kudos to tab author, rate the tab!
1 2 3 4 5
comments
print report bad tab
1 comment total.
0 reply
mickykeats 392 Jan 23, 2017 07:00 AM

Do you know how he plays the verse and Chorus?

guest
You may want to rate the tab now too:
select rating
Wanna post a correction for this tab? Suggest correction