Oops, an error
Loading. Please wait.
693 views 6 this week
no commentswrite comment
1 2 3 4 5
1 last vote to show rating
add to favorites
launch autoscroll
font size
0
reset
how to read this tab
guitar tuner
backing track
0:00
0:00
Autoscroll
slow
fast
+/-
esc
set tempo
stop
Author
Difficulty
Tuning
intermediate
D A D G B E
(/) Slide Up  (\) Slide Down  (h) Hammer On  (p) Pull Off  (b) Bend (r) Release (v) 
Vibrato (t) Tremolo Picking

“The Middle” Solo by Jimmy Eat World

E|--------------------------------------------------------------------------------------|
B|--2h3p2p0-----------------------------------------------------------------------------|
G|-------------2p0----------------------------------------------------------------------|
D|--------------------4h5p4p0-----------------------------------------------------------|
A|-------------------------------4p0----5/7--5--4--5v----4--5--5/7--5--4--5v------------|
D|--------------------------------------------------------------------------------------|


E|---------------------------------|
B|---------------------------------|
G|---------------------------------|
D|---------------------------------|
A|--4--5--4h5p4p0------------------|
D|-----------------------0---------|


E|--------------------------------------------------------------------------------------|
B|--2h3p2p0-----------------------------------------------------------------------------|
G|---------------2h4p2p0----------------------------------------------------------------|
D|----------------------------4h5p4p0--------------------------------------------4t-----|
A|-----------------------------------------4p0----5/7--5--4--5---4--5t---7t-------------|
D|--------------------------------------------------------------------------------------|


E|-----------------------------------------------------------------|
B|-----------------------------------------------------------------|
G|-----------------------------------------------------------------|
D|--5v--5v--5/7--5--4--5--4p0----5/7--5--4--5--4p0-----------------|
A|-----------------------------------------------------------------|
D|-----------------------------------------------------------------|


E|---------------------------------------------------------|
B|---------------------------------------------------------|
G|--7----7----/9----9----/11----11--12--11--12-------------|
D|-----0----------0-----------0----------------------------|
A|---------------------------------------------------------|
D|---------------------------------------------------------|

E|-----------------------0--0--0--0--0--0------------------|
B|--15t--14t--12t--10t---8--7--5--3--2--0------------------|
G|---------------------------------------------------------|
D|---------------------------------------------------------|
A|---------------------------------------------------------|
D|---------------------------------------------------------|
Suggest correction
Give kudos to tab author, rate the tab!
1 2 3 4 5
comments
print report bad tab
guest
You may want to rate the tab now too:
select rating
Wanna post a correction for this tab? Suggest correction