Oops, an error
Loading. Please wait.
187,447 views 135 this week
8 commentsread comments
1 2 3 4 5
x 27
add to favorites
launch autoscroll
font size
0
reset
how to read this tab
guitar tuner
Autoscroll
slow
fast
+/-
esc
set tempo
stop
Help us to improve Ultimate-Guitar.com Take our survey!
×
Author
Author/Artist: Jimmy eat World
Title: The middle
Album: Bleed American
Transcribed by: Billy
Email: superior_blend@hotmail.com

Tuning eBGDAD


[Intro]

e|--------------------------------------------------------------------|
B|--------------------------------------------------------------------|
G|--------------------------------------------------------------------|
D|4-4-------------------4-4-4-4-4-2-2---------------------------------|
A|----5-5-5-5-5-5-5-5-5---------------4-4-4-4-4-4-4-4-4-4-4-4-4-4-4-4-|
E|--------------------------------------------------------------------|

e|-----------------------------------------------------------------|
B|-----------------------------------------------------------------|
G|-----------------------------------------------------------------|
D|-----------------------------------------------------------------|
A|-5-5-5-5-5-5-5-5-5-4-4-4-4-4-4-4-5-5-5-5-5-5-5-5-5-5-5-5-5-5-5-5-|
E|-----------------------------------------------------------------|

[Verse]

e|-----------------------------------------------------------------|
B|-----------------------------------------------------------------|
G|-----------------------------------------------------------------|
D|-----------------------------------------------------------------|
A|-0-0-0-0-0-0-0-0-0-0-0-0-0-0-0-0-7-7-7-7-7-7-7-7-7-7-7-7-7-7-7-7-|
E|-0-0-0-0-0-0-0-0-0-0-0-0-0-0-0-0-7-7-7-7-7-7-7-7-7-7-7-7-7-7-7-7-|

e|-----------------------------------------------------------------|
B|-----------------------------------------------------------------|
G|-----------------------------------------------------------------|
D|-----------------------------------------------------------------|
A|-5-5-5-5-5-5-5-5-5-5-5-5-5-5-5-5-0-0-0-0-0-0-0-0-0-0-0-0-0-0-0-0-|
E|-5-5-5-5-5-5-5-5-5-5-5-5-5-5-5-5-0-0-0-0-0-0-0-0-0-0-0-0-0-0-0-0-|
                                                                              

e|---------------------------------------------------------------------------------------------------|
B|---------------------------------------------------------------------------------------------------|
G|---------------------------------------------------------------------------------------------------|
D|---------------------------------------------------------------------------------------------------|
A|---7-7-7-7-7-7-7-7-7-7-7-7-7-7-7-7-5-5-5-5-5-5-5-5-5-5-5-5-5-5-5-5-0-0-0-0-0-0-0-0-0-0-0-0-0-0-0-0-|
E|---7-7-7-7-7-7-7-7-7-7-7-7-7-7-7-7-5-5-5-5-5-5-5-5-5-5-5-5-5-5-5-5-0-0-0-0-0-0-0-0-0-0-0-0-0-0-0-0-|


[Chorus]

e|-2-2-2-2-2-2-2-x-0-0-0-0-0-0-0-0-x-0-0-0-0-0-0-0-x-------------------|
B|-3-3-3-3-3-3-3-x-2-2-2-2-2-2-2-2-x-0-0-0-0-0-0-0-x-------------------|
G|-2-2-2-2-2-2-2-x-2-2-2-2-2-2-2-2-x-0-0-0-0-0-0-0-x-------------------|
D|-0-0-0-0-0-0-0-x-2-2-2-2-2-2-2-2-x-5-5-5-5-5-5-5-5-x-0-0-0-0-0-0-0-0-|
A|-0-0-0-0-0-0-0-x-0-0-0-0-0-0-0-0-x-5-5-5-5-5-5-5-5-x-0-0-0-0-0-0-0-0-|
E|-0-0-0-0-0-0-0-x-0-0-0-0-0-0-0-0-x-5-5-5-5-5-5-5-5-x-0-0-0-0-0-0-0-0-|

Play verse again, then the chorus twice then this awesome as solo     

e|--------------------------------------------------------------------|
B|---2h3p2------------------------------------------------------------|
G|---------2----------------------------------------------------------|
D|-----------2-4h5p4p0-----4p0----------------------------------------|
A|---------------------4-0-----5---4---5--4--5h7--5--4--5--5--4--5----|
E|--------------------------------------------------------------------|
                                                                              
e|----------------|----------------------------------------------------|
B|----------------|-2h3p0----------------------------------------------|
G|----------------|--------4--0----------------------------------------|
D|----------------|--------------4h5p0-------4-0-----------------------|
A|---4h5p4p0------|---------------------4--0-----5---4---5---4---------|
E|-----------0----|----------------------------------------------------|

e|-----------------------------------------------------------------------------------------|
B|-----------------------------------------------------------------------------------------|
G|-----------------------------------------------------------------------------------------|
D|---------------------------------4-4-4-4-4-4-5---5--5h7--5--4--5----4--5--5h7--5--4--5---|
A|--5-5-5-5-5-5-5-5-7-7-7-7-7-7-7-7--------------------------------------------------------|
E|-----------------------------------------------------------------------------------------|

e|---------------------------------------------------------------------|
B|---------------------------------------------------------------------|
G|---------------------------------------------------------------------|
D|-4--0--12---0-12-12h14---0--14--14h16--0--16--16h17--16--17----------|
A|---------------------------------------------------------------------|
E|---------------------------------------------------------------------|

e|-------------------------0----0-------0----0----0----0-|
B|-------------------------0----0-------0----0----0----0-|
G|-19----18----16----14----12---11------9----7----6----4-|
D|-------------------------------------------------------|
A|-------------------------------------------------------|
E|-------------------------------------------------------|

Now play the verse once then the chorus twice and that's the end of this great song


Lyrics

Hey, don't write yourself off yet
It's only in your head you feel left out or
looked down on.
Just try your best, try everything you can.
And don't you worry what they tell themselves when you're away.

It just takes some time, little girl you're in the middle, 
it'll up the ride.
Everything (everything) will be just fine, everything (everything) will be 
alright (alright).


Hey, you know they're all the same.
You know you're doing better on your own, so don't buy in.
Live right now.
Yeah, just be yourself.
It doesn't matter if it's good enough for someone else.

It just takes some time, 
little girl you're in the middle of the ride.
Everything (everything) will be just fine, everything (everything) will be 
alright (alright).
It just takes some time, little girl you're in the middle of the ride.
Everything (everything) will be just fine, everything (everything) will be 
alright (alright).


[Guitar solo]
 
Hey, don't write yourself off yet.
It's only in your head you feel left out or
looked down on.
Just do your best, do everything you can.
And don't you worry what the bitter hearts are gonna say.

It just takes some time, little girl you're in the middle of the ride.
Everything (everything) will be just fine, everything (everything) will be 
alright (alright).
It just takes some time, little girl you're in the middle of the ride.
Everything (everything) will be just fine, everything (everything) will be 
alright (alright)



************************************

| x  Dead note
| h  Hammer-on
| p  Pull-off

************************************
Suggest correction
comments
print report bad tab
8 comments total. Showing first comments.
0 reply
guitarmandan 10 Nov 13, 2003 12:00 AM

dude u messed up right after the intro

0 reply
battleofla 190 Jul 05, 2004 12:00 AM

Quality Tab....Exept the solo

+1 reply
ACHILLESj87 10 Apr 07, 2005 12:00 AM

like i said before, remove head from sphinkter, then tab

guest
You may want to rate the tab now too:
select rating
Wanna post a correction for this tab? Suggest correction