Oops, an error
Loading. Please wait.
6,388 views 1 this week
4 commentsread comments
1 2 3 4 5
accurate
x 7
add to favorites
launch autoscroll
font size
0
reset
how to read this tab
guitar tuner
Autoscroll
slow
fast
+/-
esc
set tempo
stop
Help us to improve Ultimate-Guitar.com Take our survey!
×
#----------------------------------PLEASE NOTE--------------------------------#
#This file is the author's own work and represents their interpretation of the#
#song. You may only use this file for private study, scholarship, or research.#
#-----------------------------------------------------------------------------#
#-- File created with Instab - http://www.pconline.com/~smcarey/instab.html --#
#-----------------------------------------------------------------------------#

Author/Artist: Jimmy Eat World
Title: The Middle
Album: Jimmy Eat World
Transcribed by: punkrawker
Email: punkrawker245@aol.com

This tab is 100% correct. I got it from a book.
Standard Tuning

------------------------------------------------------------------------------|
------------------------------------------------------------------------------|
------------------------------------------------------------------------------|
---4-4-----------------4-4-4-4----2-2-----------------------------------------|
-------5-5-5-5-5-5-5------------------4-x11-5-x11-4-x11-5-x-11----------------|
------------------------------------------------------------------------------|
      all this is palm muted

------------------------------------------------------------------------------|
------------------------------------------------------------------------------|
---7--------------------------------------------------------------------------|
---7---------------7-------------5----------7---------------------------------|
---5---------------7-------------5----------7---------------------------------|
-------------------5-------------3----------5---------------------------------|
 verse 1 guitar plays it the whole time. 2nd starts playing in the middle

------------------------------------------------------------------------------|
------------------------------------------------------------------------------|
------------------------------------------------------------------------------|
------------------------------------------------------------------------------|
------------------------------------------------------------------------------|
------------------------------------------------------------------------------|
 its the same thing for the chorus and i dont  know the solo
comments
print report bad tab
4 comments total. Showing first comments.
0 reply
megofishing 14 wrote on November 25 2005, 11:40 am

books aren't always right....the band doesn't write them out, people like me and you do....you must use your ears and have a little sense of theory

0 reply
ched60 275 wrote on December 31 2005, 12:02 pm

I think it sounds better rather than
---7---------------7-------------------------------------|
---7---------------7-------------5----------7------------|
---5---------------7-------------5----------7------------|
-------------------5-------------3----------5------------|

Try
---7----------------------------------------7------------|
---7---------------7-------------5----------7------------|
---5---------------7-------------5----------5------------|
-------------------5-------------3-----------------------|

0 reply
saintjimmy823 14 wrote on June 3 2008, 11:35 am

yea this guy is deffinitly right

I want to post or [tab]
guest
You may want to rate the tab now too:
select rating
Please do not post tabs as comments. Select "correction" instead!