Oops, an error
Loading. Please wait.

The Middle Bass Tab

version 3
version 3
9,606 views 30 this week
2 commentsread comments
1 2 3 4 5
accurate
x 6
add to favorites
launch autoscroll
font size
0
reset
guitar tuner
Autoscroll
slow
fast
+/-
esc
set tempo
stop
Help us to improve Ultimate-Guitar.com Take our survey!
×
Difficulty
novice
this is an alternate version i tabbed out for those who don't like drop tunings
hope it helps =)
angga799@yahoo.com

INTRO (0:00)                       Tuning: EADG

No bass


1st VERSE,CHORUS, 2nd VERSE, 2nd CHORUS (0:11 – 1:34)
G|----------------|----------------|----------------|----------------|     \
D|----------------|----------------|----------------|----------------|      |
A|5-5-5-5-5-5-5-5-|5-5-5-5-5-5-5-5-|----------------|----------------|      |
D|----------------|----------------|5-5-5-5-5-5-5-5-|5-5-5-5-5-5-5-5-|      |
                                                                            |  REPEAT 7x
G|----------------|----------------|----------------|----------------|      |
D|----------------|----------------|----------------|----------------|      |
A|----------------|----------------|5-5-5-5-5-5-5-5-|5-5-5-5-5-5-5-5-|      |
D|3-3-3-3-3-3-3-3-|3-3-3-3-3-3-3-3-|----------------|----------------|     /


SOLO (1:34-1:58)
G|----------------|----------------|----------------|----------------|
D|----------------|----------------|----------------|----------------|
A|----------------|----------------|5-5-5-5-5-5-5-5-|5-5-5-5-5-5-5-5-|
D|5-5-5-5-5-5-5-5-|5-5—5-5-5-5-5-5-|----------------|----------------|

G|----------------|----------------|----------------|----------------|
D|----------------|----------------|----------------|----------------|
A|----------------|----------------|5-5-5-5-5-5-5-5-|5-5-5-5-9-9-9-9-|
D|5-5-5-5-5-5-5-5-|5-5-5-5-5-5-5-5-|----------------|----------------|

G|------------------------|------------------------|----------------|----------------|
D|------------------------|------------------------|----------------|----------------|
A|10-10-10-10-10-10-10-10-|10-10-10-10-10-10-10-10-|5-5-5-5-5-5-5-5-|5-5-5-5-5-5-5-5-|
D|------------------------|------------------------|----------------|----------------|

G|----------------|----------------|----------------|----------------|
D|----------------|----------------|----------------|----------------|
A|7-7-7-7-7-7-7-7-|7-7-7-7-7-7-7-7-|7-7-7-7-7-7-7-7-|7-7-7-7-7-7-7-7-|
D|----------------|----------------|----------------|----------------|

3RD VERSE (1:58-2:22)
G|----------------|----------------|----------------|----------------|
D|----------------|----------------|----------------|----------------|
A|----------------|----------------|----------------|----------------|
D|----------------|----------------|5-5-5-5-5-5-5-5-|5-5-5-5-5-5-5-5-|

G|----------------|----------------|----------------|----------------|
D|----------------|----------------|----------------|----------------|
A|----------------|----------------|5-5-5-5-5-5-5-5-|5-5-5-5-5-5-5-5-|
D|3-3-3-3-3-3-3-3-|3-3-3-3-3-3-3-3-|----------------|----------------|


CHORUS (2:22 - end)
G|----------------|----------------|----------------|----------------|     \
D|----------------|----------------|----------------|----------------|      |
A|5-5-5-5-5-5-5-5-|5-5-5-5-5-5-5-5-|----------------|----------------|      |
D|----------------|----------------|5-5-5-5-5-5-5-5-|5-5-5-5-5-5-5-5-|      |
                                                                            |  REPEAT 2x
G|----------------|----------------|----------------|----------------|      |
D|----------------|----------------|----------------|----------------|      |
A|----------------|----------------|5-5-5-5-5-5-5-5-|5-5-5-5-5-5-5-5-|      |
D|3-3-3-3-3-3-3-3-|3-3-3-3-3-3-3-3-|----------------|----------------|     /


Suggest correction
What's this?
You can suggest a correction to this tab. Community and Mods will review your correction and vote to approve or reject it.
comments
print report bad tab
2 comments total.
0 reply
ibanezeric82 549 wrote on April 27 2014, 01:07 am

Those 7s in the bridge should be 5s on the bottom string. The chorus starts and ends with that same note being played.

0 reply
UntilTheyFall 131 wrote on May 20 2014, 02:16 am

This sounds spot on with the song without tuning to drop D. Well done.

guest
You may want to rate the tab now too:
select rating
Please do not post tabs as comments. Select "correction" instead!