Oops, an error
Loading. Please wait.
3,140 views 1 this week
1 commentread comment
1 2 3 4 5
1 last vote to show rating
add to favorites
launch autoscroll
font size
0
reset
how to read this tab
guitar tuner
Autoscroll
slow
fast
+/-
esc
set tempo
stop
Help us to improve Ultimate-Guitar.com Take our survey!
×
Author
Jimmy Eat world- The middle 


intro:
E-----------------------------------------------------------
B-----------------------------------------------------------
G-----------------------------------------------------------
D--44-0(8x)--4444---2222--------0000------0000--------------
A-------------------------4(8x)------4444-------------------
E-----------------------------------------------------------


verse:
E-----------------------------------------------------------
B-----------------------------------------------------------
G-----------------------------------------------------------
D--7777777777777777-----------------------------------------
A--5555555555555555-7777777777777777-5555555555555555-------
E-------------------5555555555555555-3333333333333333-------


E-----------------------------------------------------------
B-----------------------------------------------------------
G----------------------------------------------------------- 2x
D--7777777777777777-----------------------------------------
A--5555555555555555-----------------------------------------
E-----------------------------------------------------------

Hey, don't write yourself off yet.
It's only in your head you feel left out or
looked down on.
Just try your best, try everything you can.
And don't you worry what they tell themselves when you're away.


Chorus:
E--------------------------
B--------------------------
G--7-------------7---------2x
D--7-----7---5---7---------
A--5-----7---5---5---------
E--------5---3-------------

It just takes some time, little girl you're in the middle, 
out the ride.
Everything will be just fine, everything will be allright.



verse:
E-----------------------------------------------------------
B-----------------------------------------------------------
G-----------------------------------------------------------
D--7777777777777777-----------------------------------------
A--5555555555555555-7777777777777777-5555555555555555-------
E-------------------5555555555555555-3333333333333333-------


E-----------------------------------------------------------
B-----------------------------------------------------------
G----------------------------------------------------------- 2x
D--7777777777777777-----------------------------------------
A--5555555555555555-----------------------------------------
E-----------------------------------------------------------

Hey, you know they're all the same.
You know you're doing better on your own, so don't buy in.
Live right now.
Yeah, just be yourself.
It doesn't matter if it's good enough for someone else.

Chorus:
E--------------------------
B--------------------------
G--7-------------7---------4x
D--7-----7---5---7---------
A--5-----7---5---5---------
E--------5---3-------------

It just takes some time, little girl you're in the middle, 
out the ride.
Everything will be just fine, everything will be allright.
It just takes some time, little girl you're in the middle, 
out the ride.
Everything will be just fine, everything will be allright

verse:
E-----------------------------------------------------------
B-----------------------------------------------------------
G-----------------------------------------------------------
D--7777777777777777-----------------------------------------
A--5555555555555555-7777777777777777-5555555555555555-------
E-------------------5555555555555555-3333333333333333-------


E-----------------------------------------------------------
B-----------------------------------------------------------
G----------------------------------------------------------- 2x
D--7777777777777777-----------------------------------------
A--5555555555555555-----------------------------------------
E-----------------------------------------------------------

Hey, don't write yourself off yet.
It's only in your head you feel left out or
looked down on.
Just do your best, do everything you can.
And don't you worry what the bitter hearts are gonna say

Chorus:
E--------------------------
B--------------------------
G--7-------------7---------4x
D--7-----7---5---7---------
A--5-----7---5---5---------
E--------5---3-------------

It just takes some time, little girl you're in the middle, 
out the ride.
Everything will be just fine, everything will be allright.
It just takes some time, little girl you're in the middle, 
out the ride.
Everything will be just fine, everything will be allright
Suggest correction
Give kudos to tab author, rate the tab!
1 2 3 4 5
comments
print report bad tab
1 comment total.
-1 reply
fuzzey82 0 Jan 17, 2003 12:00 AM

instead of:
E-------------------------------------------
B-----------------------------------------------
G-----------------------------------------------
D----44-0 (8x)-------------------------------
A-----------------------------------------------
E-----------------------------------------------

it is
E----------------------------------
B----------------------------------
G----------------------------------
D----44--------------------------
A-----------5 (8x)-------------
E-----------------------------------

guest
You may want to rate the tab now too:
select rating
Wanna post a correction for this tab? Suggest correction