Oops, an error
Loading. Please wait.

The Middle Bass Tab

version 6
version 6
2,274 views 3 this week
1 commentread comment
1 2 3 4 5
please rate
add to favorites
launch autoscroll
font size
0
reset
guitar tuner
Autoscroll
slow
fast
+/-
esc
set tempo
stop
Help us to improve Ultimate-Guitar.com Take our survey!
×
Author
Difficulty
Tuning
intermediate
D A D G B E
Jimmy Eat World - The Middle
From the album Bleed American

Tabbed By: FlamingQuilava
Tuning: Drop D (G,D,A,D)

Intro - No bass is played.
Verse 1 - When the singing starts
G|-------------------------------------------------------------------------|
D|-------------------------------------------------------------------------|
A|-------------------------------------------------------------------------|
D|7b1-0-0-0-0-0-0-0-0-0-0-0-0--7-7-7-7-7-7-7-7-7-7-7-7-5-5-5-5-5-5-5-5-5-5-|

G|-------------------------------------------------------------------------|
D|-------------------------------------------------------------------------|
A|-------------------------------------------------------------------------|
D|5-5-0-0-0-0-0-0-0-0-0-0-0-0---------------------7b1----------------------|
Repeat the above (except with 7b1 on D) then

Chorus
G|-------------------------------------------------------------------------|
D|-------------------------------------------------------------------------|
A|-------------------------5-5-5-------------------------------------------|
D|0-x12--7-x12-5-x12-0x12--------------------------------------------------|

Verse 2 - Play Verse 1
Chorus 2 - Play Chorus

Solo
G|-----------------------------------------------------------------------------|
D|-----------------------------------------------------------------------------|
A|------------------------------------------------0-0-0-0-0--------------------|
D|-0x12-7x12-0x12-2x4-4x4--6x2---7x12-0x12-7x12---------------7b1--------------|

Verse 3 - Play Verse 1, except with the first 7b1.
Chorus 3 - Play Chorus, but the second time,
hit the notes in tune with the guitar.
The notes stop abruptly here, so if you hit the
bottom D string open, hit it 9 times, instead of 12.
Suggest correction
Give kudos to tab author, rate the tab!
1 2 3 4 5
comments
print report bad tab
1 comment total.
0 reply
PsychoticPanda 31 wrote on March 14 2012, 02:16 pm

This isn't all bad, most of it's right, I guess. Don't really know what that 7b1 is doing there. Please don't get lazy - write up everything. You should also write what your symbols mean (like b and x).
Even though it's not completely accurate it didn't really deserve 1 star. I gave it three. Slap on.

guest
You may want to rate the tab now too:
select rating
Wanna post a correction for this tab? Suggest correction