Oops, an error
Loading. Please wait.

When I Want Tab

864 views 1 this week
1 commentread comment
1 2 3 4 5
2 more votes to show rating
add to favorites
launch autoscroll
font size
0
reset
how to read this tab
guitar tuner
Autoscroll
slow
fast
+/-
esc
set tempo
stop
Help us to improve Ultimate-Guitar.com Take our survey!
×
Author
Capo
1st fret
Artist: Jimmy Eat World
Song: When I Want
Album: Futures (International Version)
Tabbed by: Kmilongo (kmilo1989@gmail.com)
Tuning: Standard (eBGDAE) + Capo on 1st fret

Main Riff (this is played at the Intro and through some parts of the song)

e|---------------|
B|--3------------|
G|----0---0------|
D|------4---4-0--|
A|---------------|
E|---------------|

Verse 1:

G                                 D
Please, let's not get into this tonight
G                                D
See? It's easy and it's what you like

Chorus 1:

              C                   Am 
Don't call me foolish 'cause I'm not
            C              Am
Just be the lover when I want
           C               D               G
If I'm hated, well, it's not my fault, I swear

Verse 2:

G                              D
Now, don't you go, think it's love?
G                                         D
How did you think that's where I'm coming from?

Chorus 2:

              C                   Am 
Don't call me foolish 'cause I'm not
            C              Am
Just be the lover when I want
           C               D               Em
If I'm hated, well, it's not my fault, I swear
     C
I swear...

Solo

e|---------------------10---------------------------|
B|10-12---12-12--10-10----12-13-10---10-10----------|
G|-----------------------------------------12--11-12|
D|--------------------------------------------------|
A|--------------------------------------------------|
E|--------------------------------------------------| x2

e|-----------------|
B|10---------12--10|
G|----12--12-------|
D|-----------------|
A|-----------------|
E|-----------------|

e|--------------------|
B|10------------------|
G|----12--12-----11-12|
D|--------------------|
A|--------------------|
E|--------------------|

e|------------------------------|
B|12-13-10---10-----------------|
G|--------------12--11-12--11-12|
D|------------------------------|
A|------------------------------|
E|------------------------------|

    G      D
I swear...
 G      D
Ehhh!
C   Am
Ehhh! 
C   Am
Ehhh! 
C   D   G
Ehhh!

Verse 3:

G                               D
Well, this doesn't have to be a fight
          G                                  D
Won't you stay? You could go home alone, but why?

Chorus 3:

              C                   Am
Don't call me foolish 'cause I'm not
       C             Am
Be the lover when I want
         C                   D               Em
If you hate me, well, it's not my fault, I swear

              C                   Am
Don't call me foolish, girl, I'm not
       C             Am
Be the lover when I want
          C                D               G
If I'm hated, well, it's not my fault, I swear
          
I swear...

Outro

e|---------------|
B|--3------------|
G|----0---0------|
D|------4---4-0--|
A|---------------|
E|---------------|

e|-------------------|
B|--3-----5-3--------|
G|----0-------0------|
D|------4-------4-0--|
A|-------------------|
E|-------------------|
Suggest correction
Give kudos to tab author, rate the tab!
1 2 3 4 5
comments
print report bad tab
1 comment total.
0 reply
stuartbartley 21 Jun 02, 2007 05:49 PM

i think the intro is this

e|---------------|
B|--3------------|
G|-0--0---0------|
D|------4---4-0--|
A|---------------|
E|---------------|

just missin the open g string 2 start

guest
You may want to rate the tab now too:
select rating
Wanna post a correction for this tab? Suggest correction